Song name
# A B C D E F G H I J K L M N O P Q R S T U V W X Y Z

Darkness - Bald tab

----------------------------------------------------------------------------
			     Bald - The Darkness
----------------------------------------------------------------------------

Tabbed by: AC/DCgal
Email: ashleythepoopface@yahoo.com

Tuning: standard

e|---------------------|
B|----------5-5-5-5----|
G|--5-5-4-4------------|    x8
D|---------------------|
A|---------------------|
E|---------------------|

e|-------------------------------|
B|-------------------------------|
G|--2-2---2--2---5-5-------------|
D|--2-2---2--2---5-5-------------|
A|--0-0---0--0---3-3-------------|
E|--------------------3-5-3-5----|

e|--------------------------------|
B|--------------------------------|
G|--2-2---2--2---5-5--------------|
D|--2-2---2--2---5-5--------------|
A|--0-0---0--0---3-3--------------|
E|--------------------3-b5-5-3----|

e|--------------------------------|
B|--------------------------------|
G|--2-2---2--2---5-5--------------|
D|--2-2---2--2---5-5--------------|
A|--0-0---0--0---3-3--------------|
E|--------------------3-5-3-5-----|



this is my first tab so give me a break...
Tap to rate this tab
# A B C D E F G H I J K L M N O P Q R S T U V W X Y Z