Song name
# A B C D E F G H I J K L M N O P Q R S T U V W X Y Z

Darkness - Shake Like A Lettuce Leave tab

Help us improve GuitareTab! Take a short survey!
Ive only done the main rhythm guitar. Theres a few overdubs to be heard on the track,
with some double tracking and harmonies, plus some other stuff. I didnt bother with
that, cos it would be rather pointless to figure it out i think, and difficult. Didnt
do the solo. Wouldnt belive that its very difficult, nothing fast, just feel, and few
different sounds. Not sure how accurate the mid-8 is, although it sounds like whats
being played, i put it in anyway to complete the song. 

Intro: with a Q-filter type effect, or a wah placed in the sweet spot (similar effect
can be obtained with the bridge pick-up of a humbukered guitar, with tone rolled off
to 0, might be too muddy though, unless you have a bright overdrive sound), also use
heavy compression, although this is only if you want a sound similar to the rocording.
e|-------------------------------------------------------------------------|
B|-----------------------------3-------------------------------------------|
G|--9\--6-7\--2-------2------2-2--9-9\-------------------------------------|
D|--9\--6-7\--2-------2------0-2--9-9\-------------------------------------|
A|--7\--4-5\--0-------0--------0--7-7\-------------------------------------|
E|---------------3-0-----3-0-----------------------------------------------|

Second guitar: Heavy Overdrive/Crunch sound.
e|-------------------------------------------------------------------------|
B|----------------------------0>-------------------------------------------|
G|--9\--6/7\--2----2----2-2---1>-------------------------------------------|
D|--9\--6/7\--2----2----0-2-2-2>-------------------------------------------|
A|--7\--4/5\--0----0----0-0-2-2>-------------------------------------------|
E|------4/5\---3'0--3'0-------0>--12\(0)-----------------------------------|

Verse

e|-------------------------------------------------------------------------|
B|-------------------------------------------------------------------------|
G|-------------------------------------------------------------------------|
D|-------------------------------------------------------------------------|
A|-2-[2]--[2]-[2]--[2]-[2]--[2]-[2]--[2]-[2]--[2]-[2]--[2]-[2]--[2]-[2]----|
E|-0-[0]--[0]-[0]--[0]-[0]--[0]-[0]--[0]-[0]--[0]-[0]--[0]-[0]--[0]-[0]----|

e|-------------------------------------------------------------------------|
B|----------------------------3--------------------------------------------|
G|-4>--4-4--------------------2-2------------------------------------------|
D|-4>--4-4--2-----------------0-2---2--------------------------------------|
A|-2p0-2-2--2-2--[2]-[2]--[2]-0-0---2----[2]-[2]--[2]-[2]--[2]-[2]--[2]-[2]|
E|--------3'0-0--[0]-[0]--[0]-----3'0----[0]-[0]--[0]-[0]--[0]-[0]--[0]-[0]|

e|---------------------------------------0---------------------------------|
B|---------------------------------------0--------3------------------------|
G|---------------------------4>--4-4--------------2-2----------------------|
D|---------------------------4>--4-4--2-----------0-2---2------------------|
A|-[2]-[2]--[2]-[2]--[2]-[2]-2p0-2-2--2---[2]-[2]-0-0---2--[2]-[2]--[2]-[2]|
E|-[0]-[0]--[0]-[0]--[0]-[0]--------3'0---[0]-[0]-----3'0--[0]-[0]--[0]-[0]|

e|-------------------------------------------------------------------------|
B|-------------------------------------------------------------------------|
G|-------------------------------------------------------------------------|
D|-------------------------------------------------------------------------|
A|--[2]-[2]--[2]-[2]--[2]-[2]--[2]-[2]--[2]-[2]--[2]-[2]-------------------|
E|--[0]-[0]--[0]-[0]--[0]-[0]--[0]-[0]--[0]-[0]--[0]-[0]-------------------|

Bridge:
e|-------------------------------------------------------------------------|
B|------------------------------3--------------------3-------------------3-|
G|-4>--4------------------------2--------------------2-------------------2-|
D|-4>--4----4--2>--4-5-4-2-2>---0---2>--4-5-4-2-2>---0--2>--4-5-4-2-2>---0-|
A|-2p0-2-4/6-6-0>--0-0-0-0-0>---0---0>--0-0-0-0-0>---0--0>--0-0-0-0-0>---0-|
E|-------------------------------------------------------------------------|

e|-------------------------------------------------------------------------|
B|-----------3>------------------------------------------------------------|
G|-----------2>------------------------------------------------------------|
D|-4-4-4-4-4-0>------------------------------------------------------------|
A|-2-2-0-2-0-0>------------------------------------------------------------|
E|-------------------12\(0)------------------------------------------------|

Chorus:

e|---------------------------3-------0-------------------------------------|
B|---------------------3------5-5-3h5-5~~--------------------3---0-0>------|
G|-9\-6/7\--2----2-----2-2----------------9\-6/7\--2----2----2-2-1-1>------|
D|-9\-6/7\--2----2-----0-2-2--------------9\-6/7\--2----2----0-2-2-2>------|
A|-7\-4/5\--0----0-----0-0-2--------------7\-4/5\--0----0----0-0-2-2>------|
E|----4/5\---3'0---3'0-----0-----------------4/5\---3'0--3'0-----0-0>---12\|

This is an alternative Verse i saw the Darkness play in a soundcheck on the South Bank
Show when they did a profile on the Darkness' first album Permission to Land. It's not
difficult or very different, but it could add a bit of variation if you played this for
the second verse or something, i dunno, tis cool anyway. You need to keep the muted rhyt
 going, as in the first verse, as well as playing the chords with a sortof staccato
effect, not really difficult, just hard to describe well, hope it works out alright
for you. (would also work if one guitar played the first verse, while the second guitar
plays the chords here, without the muting rhythm here)

e|-------------------------------------------------------------------------|
B|-------------------------------------------------------------------------|
G|----------9---6--------7---------------------4>--4-4---------------------|
D|----------9---6--------7----------------2-2--4>--4-4---------------------|
A|----------7---4--------5----------4-2-4---0--2p0-2-2---------------------|
E|-[0]-[0]----[0]--[0]-[0]--[0]-[0]-------------------3'0-[0]-[0]-[0]-[0]--|


e|-------------------------------------------------------------------------|
B|-3-----------------------------------------------------------------------|
G|-2-2-------------9----6---------7----------------------------------------|
D|-0-2-------------9----6---------7--------------2--To the Bridge----------|
A|-0-0-------------7----4---------5---------4-2-4--------------------------|
E|-----3,-[0]-[0]----[0]--[0]-[0]--[0]-[0]---------------------------------|


Mid-8 
e|-------------------------------------------------------0-----------------|
B|-------------------------------------------------------0-----------3-----|
G|-2-2-2-2-2\--7-----7-----7-----7-----7-7-2--4>--4-4----------------2-2---|
D|-2-2-2-2-2\--7-----7-----7-----7-----7-7-2--4>--4-4----------------0-2---|
A|-0-0-0-0-0\--5-*-*-4-*-*-5-*-*-4-*-*-5-4-0--2p0-2-2----------------0-0---|
E|---------------------------------------------------3'0--[0]-[0]-[0]---3'0|
e|-------------------------------------------0-----------------------------|
B|-------------------------------------------0--------------3--------------|
G|-7-----7-----7-----7-----7-7-2--4>--4-4-------------------2-2------------|
D|-7-----7-----7-----7-----7-7-2--4>--4-4-------------------0-2------------|
A|-5-*-*-4-*-*-5-*-*-4-*-*-5-4-0--2p0-2-2-------------------0-0------------|
E|---------------------------------------3'0---[0]-[0]-[0]------3'0--------|

e|-------------------------------------------------------------------------|
B|---------------------------------------------------------2-2-2---3-3-3-3-|
G|-7-----7-----7-----7-----7-7-2--4>--4--------2-2-0h2---2-0-0-0---2-2-2-2-|
D|-7-----7-----7-----7-----7-7-2--4>--4----4---2-2-0h2---2-0-0-0---0-0-0-0-|
A|-5-*-*-4-*-*-5-*-*-4-*-*-5-4-0--2p0-2-4/6-6--0-0-0-0---0-2-2-2---0-0-0-0-|
E|---------------------------------------------------------3-3-3---2-2-0h2-|


e|-------------------------------------------------------------------------|
B|--------------------------------3-3-3---3-3-3-3--3-----------------------|
G|--2-2-2-2-----------2-2-0h2---2-0-0-0---2-2-2-2--2-----4--4--4--4--4-4---|
D|--0-0-0-0-----------2-2-0h2---2-0-0-0---0-0-0-0--0-----4--4--4--4--4-4---|
A|--0-0-0-0-----------0-0-0-0---0-2-2-2---0-0-0-0--0-0-1-2--2--2--2--2-2---|
E|--2-3-3-3-12\-12\---------------3-3-3---2-2-0h2--2-----------------------|

Ending
e|-------------------------------------------------------------------------|
B|----3-3----------------3-------------------------------------------------|
G|-2/4----2p0---0--4>--4-2-2-----------------------------------------------|
D|-----------h2--2-4>--4-0-2-2-2-------------------------------------------|
A|-----------------2h0-2-0-0-2-2-------------------------------------------|
E|---------------------------0-0-------------------------------------------|


Related for Shake Like A Lettuce Leave tab