Song name
# A B C D E F G H I J K L M N O P Q R S T U V W X Y Z

Darkseed - Rain tab

Artist: Darkseed
Title: Rain
Album: Diving Into Darkness
Spotify: http://open.spotify.com/track/4cqL8MJuq27EBB4FFTytrp
Tab by October

7-stringed guitar, normal tuning.
Or tune your 6-stringed guitar down to C# or B


Verse:    Pretty much the same every verse, but with some variations with palm muting.

                x3                         Last time every verse, except last one
e||-----------------------------------------------------------------------------|
B||-----------------------------------------------------------------------------|
G||-----------------------------------------------------------------------------|
D||-----------------------------------------------------------------------------|
A||-3/5-5--3/5-5--3/5-5-5-5-5-5-5-5-5-------8-3---------------------------------|
E||-3/5-5--3/5-5--3/5-5-5-5-5-5-5-5-5-------8-3---------------------------------|
H||-1/3-3--1/3-3--1/3-3-3-3-3-3-3-3-3-------6-5---------------------------------|


      Something like this, when palm muting
e||-----------------------------------------------------------------------------|
B||-----------------------------------------------------------------------------|
G||-----------------------------------------------------------------------------|
D||-----------------------------------------------------------------------------|
A||-3-3-5-5--3-3-5-5--3-3-5-3-3-5-5-5-5-5-5-------8-3---------------------------|
E||-3-3-5-5--3-3-5-5--3-3-5-3-3-5-5-5-5-5-5-------8-3---------------------------|
H||-1-1-3-3--1-1-3-3--1-1-3-1-1-3-3-3-3-3-3-------6-5---------------------------|



Chorus:      P.M.         P.M.          P.M           P.M.           Ending:
e||-----------------------------------------------------------------------------------|
B||-----------------------------------------------------------------------------------|
G||-----------------------------------------------------------------------------------|
D||----8--5----------------5-------8--5----------------8------------------------------|
A||-5--8--5--5----5--7--3--5----5--8--5--5----5--7--3--8-------------3/5-3/5-3/5-3/5--|
E||-5--6--3--5----5--7--3--3----5--6--3--5----5--7--3--6-------------3/5-3/5-3/5-3/5--|
H||-3--------3----3--5--1-------3--------3----3--5--1----------------1/3-1/3-1/3-1/3--|
Tap to rate this tab
 
# A B C D E F G H I J K L M N O P Q R S T U V W X Y Z