Darkseed - Forever Darkness tab

Band: Darkseed
Title: Forever Darkness
Album: Diving Into Darkness
Spotify: http://open.spotify.com/track/103kBQ6KgCM2YjfF3ygdKy
Tab by October

7-stringed guitar, normal tuning.
YouTube: 


Intro:
e||----------------------------------------|
B||----------------------------------------|
G||-------12---7-8-----7-8-12---8-7----7---|
D||--8-10----------9----------------10-----|
A||----------------------------------------|
E||----------------------------------------|
H||----------------------------------------|

e||-------------------------------------------------------15-----------15-----|
B||----------------------9-----12-------11-----13---13-15---16---13-15----16--|
G||------12----------7-8---7-8------7-8----7-8--------------------------------|
D||-8-10----8-10-8------------------------------------------------------------|
A||---------------------------------------------------------------------------|
E||---------------------------------------------------------------------------|
H||---------------------------------------------------------------------------|


Verse: Palm muting with variations
e||-------------------|
B||-------------------|
G||-------------------|
D||----5-----5--8-----| x2
A||-3--5--3--5--8-----|
E||-3--3--3--3--6-----|
H||-1-----1-----------|


Chorus:
e||----------------------|
B||----------------------|
G||----------------------|
D||-6--8--------6--8-----|
A||-6--8--3--6--6--8--3--|
E||-4--6--3--6--4--6--3--|
H||-------1--4--------1--|


Synth Solo: (Not sure about this one)
e||---------------------------------------------------------------------------------|
B||---------------------------------------------------------------------------------|
G||--------12-13-12--------------12-13-12-------------------------------------------|
D||-10-10-----------13-12-10-10----------13-12-12----12-12----12-12----12-12----12--| x2
A||-----------------------------------------------10-------10-------10-------10-----|
E||---------------------------------------------------------------------------------|
H||---------------------------------------------------------------------------------|
Tap to rate this tab
 
# A B C D E F G H I J K L M N O P Q R S T U V W X Y Z