Song name
# A B C D E F G H I J K L M N O P Q R S T U V W X Y Z

Darkseed - Forever Stay tab

Darkseed - Forever Stay
YouTube video: http://youtu.be/qgrIPFTBGZk

Note: Darkseed usually use 7-stringed guitars, which means that the
power chords most likely are played on the lower B-string.

Intro:
|-10-14-12-12--------12-14-----10-14-12-12-10------12----------------|
|--------------15-15-------12-------------------15----15-12-15---12--|
|--------------------------------------------------------------14----|
|--------------------------------------------------------------------|
|--------------------------------------------------------------------|
|--------------------------------------------------------------------|

|-17----17-------17--------------------------------------------------|
|----15----14-------14-12---10-11-12---------------------------------|
|--------------------------------------------------------------------|
|--------------------------------------------------------------------|
|--------------------------------------------------------------------|
|--------------------------------------------------------------------|

Verse: (Finger/Pick)
| Bm D A | Bm D E | Bm D A | Bm F#m |

Chorus: (Power Chords)
| Bm A G | Bm A E | Bm A F#m A-F#m | Bm D A |

Verse: (Finger/Pick)
| Bm D A | Bm D E | Bm D A | Bm F#m |

Chorus: (Power Chords)
| Bm A G | Bm A E | Bm A F#m A-F#m | Bm D A |

Solo:
| Bm A E | x2

Bridge: (Finger/Pick)
| Bm A G | Bm A E | Bm A F#m A-F#m | Bm D A |

| Bm A E | x2

Outro: (Power Chords + Finger/Pick)
| Bm | until the end. Palm mute etc.


Chorus:
|-----------10----------------------------------------10-12-------------------|
|-12-10-12--12/-12-10--------------------12-10-7---12-------10--12-10-7-------|
|---------------------11-9----------------------------------------------9-7---|
|--------------------------9--9-7-------------------------------------------9-|
|---------------------------------9-7-----------------------------------------|
|-------------------------------------10-7------------------------------------|

Solo:
|----------------------------10-12---14----17-17-17\--------|
|-----------7-10-12----10-12--------------------------------|
|-------7-9-------------------------------------------------|
|-9-7-9-----------------------------------------------------|
|-----------------------------------------------------------|
|-----------------------------------------------------------|

These solos are not 100% correct (the original is difficult to hear), but they do the job.
Tap to rate this tab
 
# A B C D E F G H I J K L M N O P Q R S T U V W X Y Z