Song name
# A B C D E F G H I J K L M N O P Q R S T U V W X Y Z

Darkthrone - Dark Thrones And Black Flags tab

-------------------------------------------------------------------------------
	         Darkthrone - Dark Thrones And Black Flags
-------------------------------------------------------------------------------
Tabbed by: Therion95


e|---------------------------------------------------------------------------|
B|---------------------------------------------------------------------------|
G|---------------------------------------------------------------------------|
D|---------------------------------------------------------------------------|  x4
A|--3--2--3--5--6-----6--5--6--8--9------------------------------------------|
E|---------------------------------------------------------------------------|

e|---------------------------------------------------------------------------|
B|---------------------------------------------------------------------------|
G|---------------------------------------------------------------------------|
D|--5-----5-4--3--3-----3--2--1----------------------------------------------|  x1
A|-----3-------1-----3--------1----------------------------------------------|  
E|---------------------------------------------------------------------------|

e|---------------------------------------------------------------------------|
B|---------------------------------------------------------------------------|
G|---------------------------------------------------------------------------|
D|--5-----5-4--3~--3-----3--2--1---------------------------------------------|  x1
A|-----3-------1~-----3--------1---------------------------------------------|
E|---------------------------------------------------------------------------|

e|---------------------------------------------------------------------------|
B|---------------------------------------------------------------------------|
G|---------------------------------------------------------------------------|
D|---------------------------------------------------------------------------|  x2
A|--3--2--3--5--6-----6--5--6--8--9------------------------------------------|
E|---------------------------------------------------------------------------|

e|---------------------------------------------------------------------------|
B|---------------------------------------------------------------------------|
G|---------------------------------------------------------------------------|
D|--5-----5-4--3~--3-----3--2--1---------------------------------------------|  x?
A|-----3-------1~-----3--------1---------------------------------------------|
E|---------------------------------------------------------------------------|
Tap to rate this tab
# A B C D E F G H I J K L M N O P Q R S T U V W X Y Z