Song name
# A B C D E F G H I J K L M N O P Q R S T U V W X Y Z

Darkthrone - The Church Of Real Metal tab

SONG:  Church Of Real Metal
BAND:  Darkthrone
ALBUM: Fuck Off And Die!!!
DATE:  25/10/2009; VERSION 1.0

Tab by Favio Villaseņor

Write to Burzum_valar@hotmail.com if you find a mistake or if you have the solo

this a Darkthrone own version of Revelations by Iron maiden

h: Hammer On		p: Pull Off
b: Bend			r: Release Bend
H: Hold Bend		B: Full Bend
/: Slide		": Tremollo Picking
~: Vibrato		T: Tapping
+:Harmonic		.: Palm Mute
>: Let ring		X: Ghost note


Standard E tuning
(E A D G B E)

intro
e|-------------------------||
b|-------------------------||
g|-------------------------||
d|-------------------------||
a|--9-9----8-9-10-9-8-9----||
e|--7-7----6-7-8--7-6-7----||
      PM              PM

Riff 1
e|-------------------------||
b|-------------------------||
g|-------------------------||
d|-------------------------||
a|--9-9----8-9-10-9-8-9----||
e|--7-7----6-7-8--7-6-7----||
      >>>             >>>
   I'm shure of this...


Riff 2
e|--------------------------------||
b|--------------------------------||
g|--------------------------------||
d|--------------------------------||
a|-7-7---5-5---3-3---2-2---2h3/5--||
e|-5-5---3-3---1-1---0-0---0h1/3--||
     PM    PM    PM    PM
	...and this too

Interlude(you will play this before riff 3):
e|-------------------||
b|-------------------||
g|-------------------||
d|-------------------||
a|-7-7---5-5---3-3---||
e|-5-5---3-3---1-1---||
     PM    PM     >>>

Riff 3
e|-------------------------|---------------------------||
b|-------------------------|---------------------------||
g|-------------------------|---------------------------||
d|--2-2-2-0-2-0-2-3-6-3-2--|--2-2-2-0-2-0-2-3-5-3-1----||
a|-------------------------|---------------------------||
e|-------------------------|---------------------------||
			    ....but i'm not shure of this

I will figure out the solo and the under-solo riff
i figured out this song with a nilon-strings guitar

Enjoy

		Hail Odhin
		Hail Thor
		Hail Frey
		Hail Freya
		Hail frigg

		Hail Darkthrone
		Hail Burzum
		Hail Bathory
		Hail Enslaved
		Hail Emperor
		Hail Immortal
		Hail Mayhem
Tap to rate this tab
# A B C D E F G H I J K L M N O P Q R S T U V W X Y Z