Song name
# A B C D E F G H I J K L M N O P Q R S T U V W X Y Z

Darkthrone - Hiking Metal Punks tab

Endpart:(not sure)

E------------------------------|
B------------------------------|
G------------------------------|
D------14----15-14------14-----|
A-0-0-0--12-0-------0-12----14-|
E------------------------------|

Verse:

E----------------------------------|
B----------------------------------|
G----------------------------------|
D-2--2-2--8--8-8----2--2-2--5--5-5-|
A-0--0-0--6--6-6----0--0-0--3--3-3-|
E----------------------------------|


E----------------------------------|
B----------------------------------|
G----------------------------------|
D-2--2-2--8--8-8----2--2-2---------|
A-0--0-0--6--6-6----0--0-0--2--2-2-|
E---------------------------0--0-0-|

Chorus:

E-------------------------------|
B-------------------------------|
G-------------------------------|
D--2-------------5--------------|
A--2-------------5--------------|
E--0-----0-0-0---3---3-3-3------|
Tap to rate this tab
 
# A B C D E F G H I J K L M N O P Q R S T U V W X Y Z