Darkthrone - Blackwinged tab

-------------------------------------------------------------------------------
			     Blackwinged - Darkthrone
-------------------------------------------------------------------------------

Tabbed by: Dev
Email: devster75@gmail.com

Tuning: Standard

This is my interpretation of the song, have a listen to the tune to get a sense of 
timing and rhythm.
Have fun!  :o)

Riff 1
e|---------------------------------------------------------------------------|
B|---------------------------------------------------------------------------|
G|---------------------------------------------------------------------------|
D|---------------------------------------------------------------------------|
A|-2-2-2-2-2-2-2-2-2-2--5-5-5-5-5-5-5-5--7-7-7-7-7-7-7-7-7-7--5-5-5-5-5-5-5--|
E|-0-0-0-0-0-0-0-0-0-0--3-3-3-3-3-3-3-3--5-5-5-5-5-5-5-5-5-5--3-3-3-3-3-3-3--|

Riff 2
e|---------------------------------------------------------------------------|
B|---------------------------------------------------------------------------|
G|---------------------------------------------------------------------------|
D|---------------------------------------------------------------------------|
A|-2-2-2-2-2-2-2-2--5-5-5-5-5-5-5-5--2-2-2-2-2-2--6-6-6-6--5-5-5-5-----------|
E|-0-0-0-0-0-0-0-0--3-3-3-3-3-3-3-3--0-0-0-0-0-0--4-4-4-4--3-3-3-3-----------|

Riff 3
e|---------------------------------------------------------------------------|
B|---------------------------------------------------------------------------|
G|---------------------------------------------------------------------------|
D|--------7-7-7-7-----------------------------7-7-7-7------------------------|
A|-2-2-2--5-5-5-5--2-2-2-2-2-2--3-3-3--2-2-2--5-5-5-5--2-2-2-2-2-2--1-1-1----|
E|-0-0-0-----------0-0-0-0-0-0---------0-0-0-----------0-0-0-0-0-0-----------|

Riff 4
e|---------------------------------------------------------------------------|
B|---------------------------------------------------------------------------|
G|---------------------------------------------------------------------------|
D|--------9-9-9\7-7-7/9-9-9--9-9-9-------------------------------------------|
A|-2-2-2--7-7-7\5-5-5/7-7-7--7-7-7--2-2-2-2-2-2-2-2--5-5-5-5-5-5-5-5--4-4-4--|
E|-0-0-0----------------------------0-0-0-0-0-0-0-0--3-3-3-3-3-3-3-3--2-2-2--|


************************************

| /   slide up
| \   slide down

************************************

Song Structure:
===============

Riff 1 x5
The urge...so strong
To do the devil's work.
The flock of Jesus Christ
I will rape your souls

Riff 2 x8
till you see the devil clear

Blackwinged

Riff 3 x8
Evil wings bring torture from the skies
With a limb so huge,
to serve you Christian sluts
Penetrate your pure cunts with might
Now you filthy cunts, do you see the moon?

Riff 4 x4
It's glowing for the black wings return

Riff 2 x8
Blackwinged

We'll burn your worthless bodies
and send the fire and stench 
to Heaven high, 

Riff 3 x8
Remind your worthless God, 
that our victory is complete
Clean this Earth of holy bitches
Desecrate Mother Mary

Blackwinged
Tap to rate this tab
 
# A B C D E F G H I J K L M N O P Q R S T U V W X Y Z