Song name
# A B C D E F G H I J K L M N O P Q R S T U V W X Y Z

Darkthrone - Dark Thrones And Black Flags tab

e|---------------------------------------------------------------------------|
B|---------------------------------------------------------------------------|
G|---------------------------------------------------------------------------|
D|---------------------------------------------------------------------------|  x4
A|---------------------3--2--3--5--6~----------------------------------------|
E|--5--4--5--7--8~-----------------------------------------------------------|

e|---------------------------------------------------------------------------|
B|---------------------------------------------------------------------------|
G|---------------------------------------------------------------------------|
D|---------------------------------------------------------------------------|  x2
A|--7----------8~----------------3~------------------------------------------|  
E|-----0--8-7--6~----6--0--3--2--1~------------------------------------------|

e|---------------------------------------------------------------------------|
B|---------------------------------------------------------------------------|
G|---------------------------------------------------------------------------|
D|---------------------------------------------------------------------------|  x2
A|---------------------3--2--3--5--6~----------------------------------------|
E|--5--4--5--7--8~-----------------------------------------------------------|

e|---------------------------------------------------------------------------|
B|---------------------------------------------------------------------------|
G|---------------------------------------------------------------------------|
D|---------------------------------------------------------------------------|  x3 
A|--7----------8~----------5--4--3~------------------------------------------|  
E|-----0--8-7--6~----6--0--3--2--1~------------------------------------------|

e|---------------------------------------------------------------------------|
B|---------------------------------------------------------------------------|
G|---------------------------------------------------------------------------|
D|---------------------------------------------------------------------------|  x1 
A|--7----------8~----------5-4--3~-------------------------------------------|  
E|-----0--8-7--6~----6--0--3-2--1~-------------------------------------------|


e|---------------------------------------------------------------------------|
B|---------------------------------------------------------------------------|
G|---------------------------------------------------------------------------|
D|---------------------------------------------------------------------------|  x?
A|--7----------8~----------5-4--3~-------------------------------------------|  
E|-----0--8-7--6~----6--0--3-2--1~-------------------------------------------|
Tap to rate this tab
 
# A B C D E F G H I J K L M N O P Q R S T U V W X Y Z