Song name
# A B C D E F G H I J K L M N O P Q R S T U V W X Y Z

Darkthrone - To Walk The Infernal Fields tab

Band: Dark Throne
 Album: Under A Funeral Moon 93"
 Song: To Walk the Infernal Fields

Tablature Notation:
x  - palm mute                  /  - slide up to
  - slide down to              ~  - vibrato
h  - hammer on                  b  - bend
p  - pull off                   Suffixes for bend
ph - pinch harmonic             f - full bend    h - half bend
r - release                      t - tap bend
X  - percussion mute            ~ - vibrato bend
@  - slight palm mute           () - ghost note, sustained note
 Tuning : (regular E,A,D,G,B,E)

 **[NOTE: For better structure of this tab listen to the recording.
   This might not be the correct note for this song but it sounds alike
   with the recording hope you enjoy it.]

 Riff 1A
E|------------------------------------------|--------------------------------------------|
B|------------------------------------------|--------------------------------------------|
G|------------------------------------------|--------------------------------------------|
D|--9-9-9--8-8-8--(7)-/-6-6-6--7-7-7--(8)--|--9-9-9--8-8-8--(7)-/-6-6-6--7-7-7--(8)------|
A|--9-9-9--8-8-8--(7)-/-6-6-6--7-7-7--(8)--|--9-9-9--8-8-8--(7)-/-6-6-6--7-7-7--(8)------|
E|--7-7-7--6-6-6--(5)-/-4-4-4--5-5-5--(6)--|--7-7-7--6-6-6--(5)-/-4-4-4--5-5-5--(6)------|

E|----------------------------------------|----------------------------------------|
B|----------------------------------------|----------------------------------------|
G|----------------------------------------|----------------------------------------|
D|--9-9-9--8-8-8--(7)-----7---------------|--6-6-6--7-7-7--(8)-----8---------------|
A|--9-9-9--8-8-8--(7)----------7---7------|--6-6-6--7-7-7--(8)----------8---8------|
E|--7-7-7--6-6-6--(5)--------5---5---5-/--|--4-4-4--5-5-5--(6)--------6---6---6----|

E|----------------------------------------|----------------------------------------------|
B|----------------------------------------|----------------------------------------------|
G|----------------------------------------|----------------------------------------------|
D|--9-9-9--8-8-8--(7)-----7---------------|--6-6-6--7-7-7--(8)-----8---------------------|
A|--9-9-9--8-8-8--(7)----------7---7------|--6-6-6--7-7-7--(8)-------------8------8------|
E|--7-7-7--6-6-6--(5)--------5---5---5-/--|--4-4-4--5-5-5--(6)--------66-6---66-6---6----|
 Riff 1B                     (Lead guitar)
E|-----------------------------------------------|
B|-----------------------------------------------|
G|-----------------------------------------------|
D|--9-9-9--8-8-8--(7)-/-6-6-6--121212---(8)------|
A|--9-9-9--8-8-8--(7)-/-6-6-6--121212---(8)------|
E|--7-7-7--6-6-6--(5)-/-4-4-4--101010---(6)------|
                                                              (Rhythm Guitar)
E|---------------------------------------|----------------------------------------|
B|---------------------------------------|----------------------------------------|
G|---------------------------------------|----------------------------------------|
D|--9-9-9--8-8-8---------7---------------|--6-6-6--7-7-7----------8---------------|
A|--9-9-9--8-8-8--------------7---7------|--6-6-6--7-7-7---------------8---8------|
E|--7-7-7--6-6-6--(5)-------5---5---5-/--|--4-4-4--5-5-5--(6)--------6---6---6----|
   Both guitar play through
   riff 1B 8 times.


 Riff 2A                                            (Lead Guitar)
E|----------------------------------------------------------------------------|
B|----------------------------------------------------------------------------|
G|----------------------------------------------------------------------------|
D|--9-9-9--8-8-8--7-----------------------------------------------------------|
A|--9-9-9--8-8-8--7--7--7-7--7--8--8-8--8-/-7--7-7--7--8--8-8--8--------------|
E|--7-7-7--6-6-6--5--5--5-5--5--6--6-6--6-/-5--5-5--5--6--6-6--6--7-6-5-------|

E|----------------------------------------------------------|
B|----------------------------------------------------------|
G|----------------------------------------------------------|
D|----------------------------------------------------------|
A|--6--6-6--6---7--7-7--7---6--6-6--6---7--7-7--7-----------|
E|--4--4-4--4---5--5-5--5---4--4-4--4---5--5-5--5---6-5-4---|

E|---------------------------------------------------------------------------------|
B|---------------------------------------------------------------------------------|
G|---------------------------------------------------------------------------------|
D|---------------------------------------------------------------------------------|
A|--7--7-7--7---8--8-8--8---7--7-7--7---8--8-8--8-----------6--6-6--6---7--7-7--7--|
E|--5--5-5--5---6--6-6--6---5--5-5--5---6--6-6--6---7-6-5---4--4-4--4---5--5-5--5--|

E|----------------------------------|
B|----------------------------------|
G|----------------------------------|
D|----------------------------------|
A|--6--6-6--6---7--7-7--7-----------|
E|--4--4-4--4---5--5-5--5---6-5-4---|
                                 (Rhythm Guitar)
E|---------------------------------------------------|
B|---------------------------------------------------|
G|---------------------------------------------------|
D|--8--8-8--8---9--9-9--9---7--7-7--7---8--8-8--8----|
A|--6--6-6--6---6--6-6--6---5--5-5--5---5--5-5--5----|
E|---------------------------------------------------|

 Riff 2B
E|----------------------------------------------------------------------|
B|----------------------------------------------------------------------|
G|----------------------------------------------------------------------|
D|--5-5-5--6-6-6--7-7-7-7-7-7-7-7-7-/-6-6-6--121212--8-8-8-8-8-8-8-8-8--|
A|--5-5-5--6-6-6--7-7-7-7-7-7-7-7-7-/-6-6-6--121212--8-8-8-8-8-8-8-8-8--|
E|--3-3-3--4-4-4--5-5-5-5-5-5-5-5-5-/-4-4-4--101010--6-6-6-6-6-6-6-6-6--|

E|-----------------------------------|-------------------------------------|
B|-----------------------------------|-------------------------------------|
G|-----------------------------------|-------------------------------------|
D|--9-9-9--8-8-8--7-7-7-7-7-7-7-7-7--|--6-6-6--121212--8-8-8-8-8-8-8-8-8---|
A|--9-9-9--8-8-8--7-7-7-7-7-7-7-7-7--|--6-6-6--121212--8-8-8-8-8-8-8-8-8---|
E|--7-7-7--6-6-6--5-5-5-5-5-5-5-5-5--|--4-4-4--101010--6-6-6-6-6-6-6-6-6---|

 Riff 3A       {4 Times}
E|-------------------------------------------------|
B|-------------------------------------------------|
G|-------------------------------------------------|
D|-------------------------------------------------|
A|--(3)-3--4-3-3-3--3--(6)---(3)-3--4-3-3-3--3-4---|
E|--(1)-1--2p1-1-1--1--(4)---(1)-1--2p1-1-1--1-2---|

E|----------------------------------------|
B|----------------------------------------|
G|----------------------------------------|
D|----------------------------------------|
A|--(3)-3--4-3-3-3--3---6-----3-4-3--(2)--|
E|--(1)-1--2p1-1-1--1--(4)----1-2-1--(0)--|
 Riff 3B                               {4 Times}
E|-----------------------------------------------------|
B|-----------------------------------------------------|
G|-----------------------------------------------------|
D|------79-------9-10-10-----7-9-------9-8-8-8---------|
A|--(2)---57-------7-8--8------5-7-------7-6-6-6-------|
E|--(0)--------0-0-----------0-------0-0---------------|

E|---------------------------------------------|
B|---------------------------------------------|
G|---------------------------------------------|
D|-------89---10-10--9-9--7-(3)--333---2-------|
A|-------67---8--8---7-7--5-(1)--111---2-------|
E|--(0)---------------------------------0------|
 Repeat Riff 2A, with 2B
 then play Riff 3A,
 and Riff 1A.
Tap to rate this tab
 
# A B C D E F G H I J K L M N O P Q R S T U V W X Y Z