Song name
# A B C D E F G H I J K L M N O P Q R S T U V W X Y Z

Darkthrone - Grave With A View tab

Darkthrone - Grave with a view
Tune down 1.5 Steps - C# Tuning

|---------------------12----------12--------------------------------------|
|---------------------------------------------12--------------------------|
|---9*~~~~~~-99999999----99999999----99999999----99999999-9-1010--9~~~~~--|
|--PINCH------------------------------------------------------------------|
|-HARMONIC----------------------------------------------------------------|
|-------------------------------------------------------------------------|

|-----x--121212h1313-16p13p12---------------------------------------------|
|---x------------------------13p12h13p12-16p13p12-------------------------|
|-x-----------------------------------------------11h12-12-12*~~--9*~~~---|
|---RAKE---------------------------------------------------PINCH--PINCH---|
|--------------------------------------------------------HARMONIC-HARMONIC|
|-------------------------------------------------------------------------|

|-------------------------------------------------------------------------|
|------/171717171717h18181818---------------------------------------------|
|7~~~~~----------------------141414141414h15151515------------------------|
|-------------------------------------------------161616161616------------|
|-------------------------------------------------------------151515151515|
|-------------------------------------------------------------------------|

|-----------------------------17------------18----------------------------|
|-/171717171717h18181818-1717---17-17-18p17---18p17-18p17-----------------|
|---------------------------------------------------------17-17-17-16*~~~-|
|-----------------------------------------------------------------PINCH---|
|----------------------------------------------------------------HARMONIC-|
|---------------------------------------------------------------SLIDE-DOWN|
Tap to rate this tab
# A B C D E F G H I J K L M N O P Q R S T U V W X Y Z