Song name
# A B C D E F G H I J K L M N O P Q R S T U V W X Y Z

Darkthrone - The Serpents Harvest tab

BAND:Darkthrone
SONG:The Serpents Harvest
Transcripted by Dusk.

RIFF1
-----------------------------------------------------------------------
-----------------------------------------------------------------------
-----------------------------------------------------------------------
-----------------------------------------------------------------------
-8--8-8-8--8\4--4--4/5-5\4-4/5-----------------------------------------
-6--6-6-6-------2--2/3-3\2-2/3-----------------------------------------

RIFF2
-----------------------------------------------------------------------
-----------------------------------------------------------------------
-----------------------------------------------------------------------
-----------------------------------------------------------------------
-4-4--4-4-4--4-4-4--4-5-5--5-4-4--4-4-4--8-8-8--8-8-8------------------
-2-2--2-2-2--2-2-2--2-3-3--3-2-2--2-2-2--6-6-6--6-6-6------------------

RIFF3
????

RIFF4
Listen to the record for the timings.
All notes a tremolo picked.
-----------------------------------------------------------------------
-----------------------------------------------------------------------
-7-9-7--3-5-3--2--4-5-(12)-(10)-9-7------------------------------------
-----------------------------------------------------------------------
-----------------------------------------------------------------------
-----------------------------------------------------------------------

P.S. If you have corections please mail me at eclipse@mail.ru
Tap to rate this tab
# A B C D E F G H I J K L M N O P Q R S T U V W X Y Z