Song name
# A B C D E F G H I J K L M N O P Q R S T U V W X Y Z

Darkthrone - Transilvanian Hunger tab

Standard Tuning.
I will only post the main riffs as it is a reasonable long song, and only consists of 3 riffs repeated.
Listen to song for strumming pattern, its fast, but its easy enough.

Intro/RIFF A:
E-----------------------------------------------------------------|
B----------------------------------------------------------------o|
G-----------------------------------------------------------------|
D-12-x8--10-x8--9-x8--10-x8--10-x8-9-x8--10-x8--9-x8--------------|
A--0------0-----0------0------7----7------7-----7----------------o|
E-----------------------------------------------------------------|

RIFF B:
E-----------------------------------------------------------------|
B----------------------------------------------------------------o|
G-----------------------------------------------------------------|
D--7-x16--8-x16--7-x16--9-x8--10-x8-------------------------------|
A--0------0------0------7------7---------------------------------o|
E-----------------------------------------------------------------|
   "Hail to the True, intense vampires..."

RIFF C:
E------0--------1---------------------------------------------------|
B------0--------1--------------------------------------------------o|
G-------------------------------------------------------------------|
D-2---------3-------------------------------------------------------|
A-2-x16-------3-x16------------------------------------------------o|
E-0---------1-------------------------------------------------------|

Lyrics:
Transilvanian Hunger...cold..soul
Your hands are cruel...to haunt..to haunt

the mountains are cold...soul...soul...
careful..pale...forever at Night

Take me...can't you feel the Call
Embrace Me Eternally in your daylight slumber

To be Draped by the Shadow of your Morbid Palace
oh, Hate Living...The only heat is warm blood

So Pure... So Cold
Transilvanian Hunger

Hail to the True, intense vampires
A story made for Divine fulfillment

To be the ones breathing a Wind of Sorrow
Sorrow and fright the dearest catharsis

Beautiful Evil Self to be the Morbid Count
A part of a Pact that is delightfully immortal

[scream]

Feel the call freeze you with the uppermost desire
Transilvanian Hunger...my mountain is cold

[scream]

So Pure... Evil, Cold
Transilvanian Hunger

True Norwegian Black Metal.
Tap to rate this tab
# A B C D E F G H I J K L M N O P Q R S T U V W X Y Z