Song name
# A B C D E F G H I J K L M N O P Q R S T U V W X Y Z

Darkthrone - Skald Av Satans Sol tab

Pretty cool Darkthrone song

" = Tremolo picking
/ = Slide

Riff A (Fast picking)
|-----------------------------------------------------|
|-----------------------------------------------------|
|-----------------------------------------------------|
|-9--10--9-------9------------------------------------|
|-7---8--7---11--7--11--10----------------------------|
|-------------9------9---8----------------------------|
 x 12

Riff B (Fast picking)
|-----------------------------------------------------|
|-----------------------------------------------------|
|-----9--8--------------------------------------------|
|-9---7--6---4---6--10--------------------------------|
|-7----------2---4---8--------------------------------|
|-----------------------------------------------------|
 x 8

Riff A x 8
Riff B x 8

Riff C (This one with 2 guitars)
I
|-----------------------------------------------------|
|-----------------------------------------------------|
|-----------------------------------------------------|
|-----------------------------------------------------|
|-6"--8"-9"--2"--4"-2"/-------------------------------|
|-----------------------------------------------------|
x 10

II (Just once)
|-0---0-----------------------------------------------|
|-0---0-----------------------------------------------|
|-0---0-----------------------------------------------|
|-0---0-----------------------------------------------|
|-0---0-----------------------------------------------|
|-0---0-----------------------------------------------|

Riff D (Just once)
|-----------------------------------------------------|
|-----------------------------------------------------|
|-----------------------------------------------------|
|-3---------------------------------------------------|
|-1---------------------------------4---2-------------|
|-----------------------------------2---1-------------|
(Fast picking)                   (Let ring)

Riff A x 8
Riff B x 8 (solo starts at 4)

The solo is quite simple and lots of bends so I think there's no need to put it here. If 
have any doubt or anything just write me a message.

Keep it Evil!
Tap to rate this tab
 
# A B C D E F G H I J K L M N O P Q R S T U V W X Y Z