Song name
# A B C D E F G H I J K L M N O P Q R S T U V W X Y Z

Darkthrone - Gather For Attack On The Pearly Gates tab

Darkthrone: Gather for Attack on the pearly Gates
Transcribed by Skjeld

----------------------------------------------------------
----------------------------------------------------------
----------------------------------------------------------
------9-10-----9--9-------9-10-----9----------------------
---7--7--8--7--7--6----7--7--8--7--7--8-(10)--------------
---5--------5----------5--------5-----6--(8)--------------
                                    
                              Before the next riff without ( )

---------------------------------------------------------------------
---------------------------------------------------------------------
---------------------------------------------------------------------
---7--5--8--5--7--5--7--5--8--5--7---5--3--6--3--5--3--5--3--6--3--5-
---5--5--5--5--5--5--5--5--5--5--5---3--3--3--3--3--3--3--3--3--3--3-
---------------------------------------------------------------------

------------------------------------------------------------
------------------------------------------------------------
------------------------------------------------------------
------------------------------------------------------------
---9--4--5--2---9--9\10/9--9--7--8--------------------------
---7--2--3--2---7--7\-8/7--7--5--6--------------------------

-------------------------------------------------------                 
-------------------------------------------------------
-------------------------------------------------------
------------3------------------------------------------
---2--3--2--1------------------------------------------
---0--1--0---------------------------------------------
Tap to rate this tab
# A B C D E F G H I J K L M N O P Q R S T U V W X Y Z