Song name
# A B C D E F G H I J K L M N O P Q R S T U V W X Y Z

Darkthrone - Transylvanian Hunger tab

You must play every riff with tremolo picking (Repeat 'em as necessary)

RIFF1:

|-----------------------------|
|-----------------------------|
|-----------------------------|
|-12--10--9--10--10--9--10--9-|
|-0---0---0--0---7---7--7---7-|
|-----------------------------|

RIFF2:

|----------------|
|----------------|
|----------------|
|-7--8--7--9--10-|
|-0--6--0--8--8--|
|----------------|

RIFF3:

|------|
|------|
|------|
|------|
|-2--3-|
|-0--1-|

RIFF 4: (This one fades out until the end, you can hear it clearly)

|------------------------------|
|------------------------------|
|------------------------------|
|-12--10--9--10--14--12--10--9-|
|-0---0---0--0---0---0---7---7-|
|------------------------------|



That's all!!!! 
Man, this is THE black metal song and one of the easier to play :) I'm pretty sure it's 100% correct. :)
If you are so good to find any mistake mail me at maguscaligula@hotmail.it
HAIL YLLIA!
(This is an upgrade, i found one last riff, listening to the song :P Now it's really complete...Enjoy :P)
Tap to rate this tab
# A B C D E F G H I J K L M N O P Q R S T U V W X Y Z