Guitaretab - guitar tabs
Song name
# A B C D E F G H I J K L M N O P Q R S T U V W X Y Z

Darkthrone - Graveyard Slut tab

-------------------------------------------------------------------------------
			     Graveyard Slut - Darkthrone
-------------------------------------------------------------------------------
Tabbed by:Greg Misiak


Tuning: E standard

 Please note: Any chords, including the ones in the solo, are tremolo picked.


Riff 1
e|---------------------------------------------------------------------------|
B|-----------------------O---------------------------------------------------|
G|---------------------------------------------------------------------------|
D|-6---------9--5-----5------------------------------------------------------|
A|-4---------7--3--5--3--O---------------------------------------------------|
E|-----------------3---------------------------------------------------------|

Verse Riff
e|---------------------------------------------------------------------------|
B|---------------O-----------------------------------------------------------|
G|---------------------------------------------------------------------------|
D|---------------------------------------------------------------------------|
A|-6-----------4-O-----------------------------------------------------------|
E|-4--6b-r----2-2------------------------------------------------------------|
[ Tab from: http://www.guitaretab.com/d/darkthrone/94198.html ]
Weird thing: Same articulation as First Riff.
e|---------------------------------------------------------------------------|
B|-------------O-------------------------------------------------------------|
G|---------------------------------------------------------------------------|
D|---------------------------------------------------------------------------|
A|3--4--3--2---O-------------------------------------------------------------|
E|1--2--1--0-----------------------------------------------------------------|

Pre-solo, under solo.
e|-----------------------------------------------------------------------------------|
B|-----------------------------------------------------------------------------------|
G|-----------------------------------------------------------------------------------|
D|-9---------------------------------------------------------------------------------|
A|-7--7---8---7----------------------------------------------------------------------|
E|----5---6---5--3b*-----------------------------------------------------------------|

*Bend this to 4 immediately.


"solo": I don';t have a whammy bar. Darkthrone does.Remember to tremolo pick.
e|-17\\\\--------------------------------------------------------------------|
B|-------------------------16--15--14-13-------------------------------------|
G|--------14\\-------------16--15--14-13-------------------------------------|
D|-------------14-b-15-r-14--------------------------------------------------|
A|---------------------------------------------------------------------------|
E|---------------------------------------------------------------------------|

| /  slide up
| \  slide down
| h  hammer-on
| p  pull-off
| ~  vibrato
| +  harmonic
| x  Mute note
===============================================================================
Related for Graveyard Slut tab
Advertisement will be closed in 10 seconds