Guitaretab - guitar tabs
Song name
# A B C D E F G H I J K L M N O P Q R S T U V W X Y Z

Darkthrone - Soulside Journey tab

NOTES - Set Microsoft Word to 0.5" margins so this will fit, also set the text to 
New at size 10!!! All songs the giutars are tuned down 1.5 steps (C# standard) This album is 
cool, hope the tabs are good!!! Enjoy!!

Darkthrone-Cromlech

Guitar 1 = Left Speaker
Guitar 2 = Right Speaker
Guitar 3 = Solos/Random Fills

. = Palm Mute
, = Trem Pick
/\ = Slide
|3| = Triplet
a [above note] = Artificial Harmonic
#==== = Let Ring
b = Bend Half Step
#t# = Trill
(t) = when above trill note a semi-tone
x\\\ = Pick Scrape
r = Rest
Anything Else See Notes

Riff 1   () = Guitar 2, 4th and 5th times
C#|-----------------|-----------------|-----------------|-----------------||6x
G#|-----------------|-----------------|-----------------|-----------------||
E |-----------------|-----------------|-----------------|-----------------||
B |-----------------|-----------------|-----------------|-----------------||
F#|(5)-----(6)------|(4)-(7)-(3)-(6)--|-----------------|-------------5---|| Guitars 1&2
C#|-3-------4-------|-2---5---1---4---|-3-------4-------|-7---6---7-------||
    ,       ,         ,   ,   ,   ,     ,       ,         ,   ,   ,

Riff 2
C#|-----------------|-----------------|-----------------|-----------------||
G#|-----------------|-----------------|-----------------|-----------------||
E |-----------------|-----------------|-----------------|-----------------||
B |---------5-------|-9-------7-------|---------5-------|-9-------7-------||
F#|-2---6---3-------|-7---10--5---8---|-2---6---3-------|-7---10--5---8---|| Guitar 1
C#|-0---4-----------|-----8-------6---|-0---4-----------|-----8-------6---||
  |                                                                       |
C#|-----------------|-----------------|-----------------|-----------------||
G#|-----------------|-----------------|-----------------|-----------------||
E |-----------------|-----------------|-----------------|-----------------||
B |---------5-------|-9-------7-------|---------5-------|-9-------7-------||
F#|-2---6---3-------|-7---10--5---8---|-2---6---3-------|-----10------8---|| Guitar 2
C#|-0---4-----------|-----8-------6---|-0---4-----------|---------------\\||

Riff 2a
C#|-----------------|-----------------||4x
G#|-----------------|-----------------||
E |-----------------|-----------------||
B |-----------------|-----------------||
F#|---------3-------|-7-------5-------|| Guitars 1&2
C#|-0---4-----------|-----8-------6---||
    ,   ,   ,         ,   ,   ,   ,

Riff 3
C#|-----------------|-----------------|-----------------|-----------------|
G#|-----------------|-----------------|-----------------|-----------------|
E |-----------------|-----------------|-----------------|-----------------|
B |-----------------|-----------------|-----------------|-----------------|
F#|-5-------8-5-8-5-|-5-------8-5-8-5-|-3-------6-3-6-3-|-3-------6-3-6-3-|
C#|-----------------|-----------------|-----------------|-----------------|
    ,       , , , ,   ,       , , , ,   ,       , , , ,   ,       , , , ,
C#|-----------------|-----------------|-----------------|-----------------||
G#|-----------------|-----------------|-----------------|-----------------||
E |-----------------|-----------------|-----------------|-----------------||
B |-----------------|-----------------|-----------------|-----------------||
F#|-7-------107-107-|-7-------107-107-|-6-------9-6-9-6-|-9-------129-129-|| Guitars 1&2
C#|-----------------|-----------------|-----------------|-----------------||
    ,       , , , ,   ,       , , , ,   ,       , , , ,   ,       , , , ,

Riff 3a   () = Guitar 2
C#|-----------------|-----------------|-----------------|-----------------|
G#|-----------------|-----------------|-----------------|-----------------|
E |(2)-----(5-2-5-2)|(2)-----(5-2-5-2)|(0)-----(3-0-3-0)|(0)-----(3-0-3-0)|
B |-----------------|-----------------|-----------------|-----------------|
F#|-5-------8-5-8-5-|-5-------8-5-8-5-|-3-------6-3-6-3-|-3-------6-3-6-3-|
C#|-----------------|-----------------|-----------------|-----------------|
    ,       , , , ,   ,       , , , ,   ,       , , , ,   ,       , , , ,
C#|-----------------|-----------------|-----------------|-----------------||
G#|-----------------|-----------------|-----------------|-----------------||
E |(4)-----(7-4-7-4)|(4)-----(7-4-7-4)|(3)-----(3-6-3-6)|(6)-----(9-6-9-6)||
B |-----------------|-----------------|-----------------|-----------------||
F#|-7-------107-107-|-7-------107-107-|-6-------9-6-9-6-|-9-------129-129-|| Guitars 1&2
C#|-----------------|-----------------|-----------------|-----------------||
    ,       , , , ,   ,       , , , ,   ,       , , , ,   ,       , , , ,

Riff 3b   () = Guitar 2
C#|-----------------|-----------------|-----------------|-----------------|
G#|-----------------|-----------------|-----------------|-----------------|
E |-----------------|-----------------|-----------------|-----------------|
B |(4)-----(7-4-7-4)|(4)-----(7-4-7-4)|(2)-----(5-2-5-2)|(2)-----(5-2-5-2)|
F#|-5-------8-5-8-5-|-5-------8-5-8-5-|-3-------6-3-6-3-|-3-------6-3-6-3-|
C#|-----------------|-----------------|-----------------|-----------------|
    ,       , , , ,   ,       , , , ,   ,       , , , ,   ,       , , , ,
C#|-----------------|-----------------|-----------------|-----------------||
G#|-----------------|-----------------|-----------------|-----------------||
E |-----------------|-----------------|-----------------|-----------------||
B |(6)-----(9-6-9-6)|(6)-----(9-6-9-6)|(5)-----(8-5-8-5)|(8------(118-118)||
F#|-7-------107-107-|-7-------107-107-|-6-------9-6-9-6-|-9-------129-129-|| Guitars 1&2
C#|-----------------|-----------------|-----------------|-----------------||
    ,       , , , ,   ,       , , , ,   ,       , , , ,   ,       , , , ,

Play Riff 3
Play Riff 3a

Riff 4   () = Guitar 2, 4th time
C#|-----------------|-----------------||4x
G#|-----------------|-----------------||
E |-----------------|-|  3  |-|  3  |-||
B |-----------------|(4)(3)--(3)(2)---||
F#|-----------------|-4--3-(4)3--2-(3)|| Guitar 1&2
C#|-1-1111112-222222|-------4-------3-||

Riff 5  [] = Donít Play 2nd Time!!
C#|-----------------|-----------------|-----------------|
G#|-----------------|-----------------|-----------------|
E |-----------------|-----------------|-----------------|
B |-----------------|-----------------|-----------------|
F#|-----7---6-------|-----7---6---8---|-----7---6-------|
C#|[0]----------8---|-0---------------|-0-----------8---|
        ,   ,   ,         ,   ,   ,         ,   ,   ,
C#|-----------------|-----------------|-----------------|-----------------||2x
G#|-----------------|-----------------|-----------------|-----------------||
E |-----------------|-----------------|-----------------|-----------------||
B |-------------9---|-12--11--7---8---|-------------9---|-12--11--7---8---||
F#|-----11--10------|-----------------|-----11--10------|-----------------|| Guitar 1&2
C#|-9---------------|-----------------|-9---------------|-----------------||
    ,   ,   ,   ,         ,   ,   ,     ,   ,   ,   ,     ,   ,   ,

Riff 2b
C#|-----------------|-----------------|-----------------|-----------------||
G#|-----------------|-----------------|-----------------|-----------------||
E |-----------------|-----------------|-----------------|-----------------||
B |---------5-------|-9-------7-------|---------5-------|-9-------7-------||
F#|-2---6---3-------|-7---10--5---8---|-2---6---3-------|-7---10--5---8---|| Guitar 1
C#|-0---4-----------|-----8-------6---|-0---4-----------|-----8-------6---||
  |                                                                       |
C#|-----------------|-----------------|-----------------|-----------------||
G#|-----------------|-----------------|-----------------|-----------------||
E |-----------------|-----------------|-----------------|-9-------7-------||
B |---------5-------|-9-------7-------|---------5-------|-----10------8---||
F#|-2---6---3-------|-7---10--5---8---|-2---6---3-------|-----------------|| Guitar 2
C#|-0---4-----------|-----8-------6---|-0---4-----------|-----------------||

Play Riff 1 - 3x [Guitar 2 plays ()ís on 1st and 2nd time]

Guitar 1 = Play Riff 2a                   -|Play
Guitar 2 = Play First Two Bars Of Riff 2  -|Together

Both Guitars = Play Riff 2a - 4x [Donít trem pick last note last time!]
Bass Solo

End Riff
C#|-----------------|-----------------|-----------------|-----------------|
G#|-----------------|-----------------|-----------------|-----------------|
E |-----------------|-----------------|-----------------|-----------------|
B |-----------------|-----------------|-----------------|-----------------|
F#|-4--4----4--4----|-4--4----8-8-8---|-4--4----4--4----|-4--4----8-8-8---|
C#|-2--2--3-2--2--3-|-2--2--3-6-6-6---|-2--2--3-2--2--3-|-2--2--3-6-6-6---|

C#|-----------------|-----------------|-----------------|-----------------||
G#|-----------------|-----------------|-----------------|-----------------||
E |-----------------|-----------------|-----------------|-----------------||
B |-----------------|-----------------|-----------------|-----------------||
F#|-4--4----4--4----|-4--4----8-8-8---|-4--4----4--4----|-2---------------|| Guitars 1&2
C#|-2--2--3-2--2--3-|-2--2--3-6-6-6---|-2--2--3-2--2--3-|-0---------------||




Darkthrone-Sunrise Over Locus Mortis

Riff 1   () = Guitar 2, 3rd time
C#|------------------|(a)-(a)----------||3x
G#|----(a)-(a)-------|(6)-(5)-----(a)--||
E |----(4)-(3)--(a)--|-3---2------(6)--||
B |-----2---1---(5)--|-------------4---||
F#|--------------3---|-----------------|| Guitars 1&2
C#|-0----------------|-----------------||

Riff 1a
C#|------------------|-------------||3x
G#|------------------|-------------||
E |------------------|-3---2-------||
B |-----2---1--------|-------------||
F#|--------------3---|-------------|| Guitars 1&2
C#|-0----------------|-------------||

Riff 2   [donít trem pick and let last note ring last time]
C#|-----------------|-----------------||4x
G#|-----------------|-----------------||
E |-----------------|-----------------||
B |-4---3-----------|-----------------||
F#|---------2---1---|-------------3---|| Guitars 1&2
C#|-----------------|-3---2---0-------||
    ,   ,   ,   ,     ,   ,   ,   ,

Riff 3   () = Guitar 2
C#|-------------|-------------|-------------|-------------|
G#|-------------|-------------|-------------|-------------|
E |-------------|-------------|-------------|-------------|
B |-------------|-5-----------|-5--8--------|-------------|
F#|-------5--4--|-------6-----|-------7-----|-------5--4--|
C#|-6-----------|-------------|-------------|-7-----------|

C#|-------------|-------------|-------------|-------------|
G#|-------------|-------------|-------------|-------------|
E |-------------|-------------|-------------|---6---------|
B |-------------|-------------|-------------|-5---5-------|
F#|-5-----4=====|======-2-----|-------5--4--|-------6-----|
C#|-3-----2=====|======-0-----|-6-----------|-------------|

C#|-------------|-------------|-------------|-------------||
G#|-------------|-------------|-------------|-------------||
E |-------------|-------------|-------------|-------------||
B |-5--8--9-----|-------------|(5)----------|-------------||
F#|-------------|-------5--4--|-5-----4=====|============-|| Guitars 1&2
C#|-------------|-7-----------|-3-----2=====|============-||

Riff 4
C#|-----------------|-----------------|-----------------|-----------------||
G#|-----------------|-----------------|-----------------|-----------------||
E |-----------------|-----------------|-----------------|-----------------||
B |-----------------|-----------------|-----------------|-----------------||
F#|-------------4---|-----------------|-------------4---|-----------------|| Guitars 1&2
C#|-1-------------2-|-5-----------6-3-|-1-------------2-|-5---------------||
    ,           , ,   ,           , ,   ,           , ,   ,

Rest For A Sec.

Riff 4a                                     |1., 2.       |3.           |
C#|-------------|-------------|-------------|-------------|-------------||
G#|-------------|-------------|-------------|-------------|-------------||
E |-------------|-------------|-------------|-------------|-------------||
B |-------------|-------------|-------------|---------3---|-------------||
F#|-------------|-------4-----|-0-00000-0000|-0-00001-----|-0-00001-----|| Guitars 1&2
C#|-1-11111-1111|-1-1111----2-|-------------|-----------3-|-----------3-||

Riff 5
C#|-----------------|-----------------|-----------------|-----------------||4x
G#|-----------------|-----------------|-----------------|-----------------||
E |-----------------|-----------------|-----------------|-----------------||
B |-----------------|-3-----5---------|-----------------|-2---------------||
F#|-0-----------2-3-|---2-3-----------|---------------2-|-----2---3-------|| Guitars 1&2
C#|-----------------|-----------------|-1-----------3---|-----------------||
    ,           . .     . . ,           ,           . .       ,

Riff 6   () = Guitar 1 only plays these
C#|-------------|-------------|-------------|-------------|
G#|-------------|-------------|-------------|-------------|
E |-------------|-------------|-------------|-------------|
B |-------------|-------------|-------------|-------------|
F#|-------------|(5--(5-4)----|-------------|(8--(8-7)----|
C#|-3-----------|--(6)--------|-6-----------|--(9)--------|
    ,                           ,
C#|-------------|-------------|-------------|-------------||3x
G#|-------------|-------------|-------------|-------------||
E |-------------|-------------|-------------|-------------||
B |-------------|(6--(6-5)----|-------------|(10-(109)----||
F#|-4-----------|--(7)--------|-8-----------|--(11)-------|| Guitars 1&2
C#|-------------|-------------|-------------|-------------||
    ,                           ,

Riff 7
C#|-----------------|-----------------|-----------------|-----------------|
F#|-----------------|-----------------|-----------------|-----------------|
E |-----------------|-----------------|-----------------|-----------------|
B |---------2-------|-----------------|---------2-------|-4---3-----------|
F#|-----------------|-----------------|-----------------|---------4---1---|
C#|-22222222--------|-4---3---0---1---|-22222222--------|-----------------|
                      ,   ,   ,   ,                       ,   ,   ,   ,
C#|-----------------|-----------------|-----------------|
F#|-----------------|-----------------|-----------------|
E |-----------------|-----------------|-----------------|
B |---------2-------|-----------------|---------2-------|
F#|-----------------|-----------------|-----------------|
C#|-22222222--------|-4---3---0---1---|-22222222--------|
                      ,   ,   ,   ,
C#|-----------------|-----------------||2x
F#|-----------------|-----------------||
E |-----------------|-----------------||
B |-4---3-----------|-5---4-----------||
F#|---------4---1---|---------5---2---|| Guitars 1&2
C#|-----------------|-----------------||
    ,   ,   ,   ,     ,   ,   ,   ,

Play Riff 4a

Pre-End Riff   () = Guitar 2
C#|-----------------|-----------------|-----------------|-----------------||2x
G#|-----------------|-----------------|-----------------|-----------------||
E |-----------------|-----------------|-----------------|-----------------||
B |-----------------|-----------------|(5)--------------|(4)-----(1)------||
F#|-----------------|-----------------|-5------(3)------|-4-------1-------|| Guitars 1&2
C#|-1111111111111111|-1111111111111111|---------3-------|-----------------||

End Riff   () = Guitar 2
C#|-----------------|-----------------|-----------------|-----------------||2x
G#|-----------------|-----------------|-----------------|-----------------||
E |-----------------|-----------------|-----------------|(6)-----(3)------||
B |-----------------|-----------------|(5)--------------|-----------------||
F#|-----------------|-----------------|-5------(3)------|-4-------1-------|| Guitars 1&2
C#|-1111111111111111|-1111111111111111|---------3-------|-----------------||




Darkthrone-Soulside Journey

Riff 1   [donít trem pick last note last time]
C#|-----------------|-----------------||5x
G#|-----------------|-----------------||
E |-----------------|-----------------||
B |-----------------|-----------------||
F#|-----7-----------|---------4---3---|| Guitars 1&2
C#|-5-------6---7---|-1---2-----------||
    ,   ,   ,   ,     ,   ,   ,   ,

Riff 2   (b) or () = Guitar 2 only
C#|-----------------|-----------------|-----------------|-----------------|
G#|-----------------|-----------------|-----------------|-----------------|
E |-----------------|-----------------|-----------------|-----------------|
B |---------6-------|-5---------------|---------6-------|-5(b)------------|
F#|-----------------|---------7-------|-----------------|-----------------|
C#|-5---------------|-----------------|-5---------------|---------7-------|

C#|-----------------|-----------------|-----------------|-----------------|
G#|-----------------|-----------------|-----------------|-----------------|
E |-----------------|-----------------|---------4-------|-----------------|
B |---------2-------|--------(4-5-4t5)|(3)--------------|-4---------------|
F#|-3---------------|-2---------------|-3---------------|-----------------|
C#|-1---------------|-----------------|-----------------|-----------------|

C#|-----------------|-----------------|-----------------|-----------------|
G#|-----------------|-----------------|-----------------|-----------------|
E |-----------------|-----------------|-----------------|-----------------|
B |---------6-------|-5---------------|---------6-------|-5(b)------------|
F#|-----------------|---------7-------|-----------------|-----------------|
C#|-5---------------|-----------------|-5---------------|---------7-------|

C#|-----------------|-----------------|-----------------|-----------------||
G#|-----------------|-----------------|-----------------|-----------------||
E |-----------------|-----------------|(5)------4-------|-----------------||
B |---------2-------|-----------------|-----------------|-4---------------||
F#|-3---------------|-2---------------|-3---------------|-----------------|| Guitars 1&2
C#|-1---------------|-----------------|-----------------|-----------------||

Riff 1a
C#|-----------------|-----------------|-----------------|-----------------||2x
G#|-----------------|-----------------|-----------------|-----------------||
E |-----------------|-----------------|-----------------|-----------------||
B |-----6---5-------|-----6---5-------|-----2---1-------|-----2---1-------||
F#|-------------7---|-------------7---|-------------3---|-------------3---|| Guitars 1&2
C#|-5---------------|-5---------------|-1---------------|-1---------------||
    ,   ,   ,   ,     ,   ,   ,   ,     ,   ,   ,   ,     ,   ,   ,   ,

Riff 3   () = Guitar 2
C#|-------------|-------------|-------------|-------------||3x
G#|-------------|-------------|-------------|-------------||
E |-------------|-------------|-------------|-------------||
B |------(9)----|(8)---(7)----|-------------|-5-----------||
F#|-------7--(8)|-6--(7)5--(6)|-----1-----2-|-3-----3-----|| Guitars 1&2
C#|-0-000-----6-|-----5-----4-|-2-----3-----|-------1-----||

Riff 3a   () = Guitar 2
C#|-------------|-------------|-------------|-------------||
G#|-------------|-------------|-------------|-------------||
E |-------------|-------------|-------------|-------------||
B |------(7)----|(6)---(5)----|-------------|-5-----------||
F#|-------7--(6)|-6--(5)5--(4)|-----1-----2-|-3-----3-----|| Guitars 1&2
C#|-0-000-----6-|-----5-----4-|-2-----3-----|-------1-----||


Play Riff 1 - 5x

Lead Into Next Section   () = Guitar 2
C#|-----------------|-----------------|-----------------|-----------------||
G#|-----------------|-----------------|-----------------|-----------------||
E |-----------------|-----------------|-----------------|--------(x\\\\\\)||
B |-4-------------3-|---------------4-|-----------------|--------(x\\\\\\)||
F#|-2-4-----------1-|-3-------------2-|-5-------7-------|-4---------------|| Guitars 1&2
C#|---2-------------|-1---------------|-3-------5-------|-2---------------||

Riff 4
C#|-------------|-------------|-------------|-------------|
G#|-------------|-------------|-------------|-------------|
E |-------------|-------------|-------------|-------------|
B |-------------|-------------|-------------|-------------|
F#|-4-----4-----|-4-----4--8--|-3-----3-----|-7-7-7-7-/9--|
C#|-2-22222-2222|-2-22222--6--|-1-11111-1111|-5-5-5-5-/7--|
      ....  ....    ....          ....  ....
C#|-------------|-------------|-------------|-------------|
G#|-------------|-------------|-------------|-------------|
E |-------------|-------------|-------------|-------------|
B |-------------|-------------|-------------|-------------|
F#|-4-----4-----|-4-----4--8--|-3-----3-----|-7-7-7-7-/9--|
C#|-2-22222-2222|-2-22222--6--|-1-11111-1111|-5-5-5-5-/7--|
      ....  ....    ....          ....  ....
C#|-------------|-------------|-------------|-------------|
G#|-------------|-------------|-------------|-------------|
E |-------------|-------------|-------------|-------------|
B |-------------|-------------|-------------|-------------|
F#|-4-----4-----|-4-----4--8--|-3-----3-----|-3-----3--8--|
C#|-2-22222-2222|-2-22222--6--|-1-11111-1111|-1-11111--6--|
      ....  ....    ....          ....  ....    ....
C#|-------------|-------------|-------------|-------------||
G#|-------------|-------------|-------------|-------------||
E |-------------|-------------|-------------|-------------||
B |-------------|-------------|-------------|-------------||
F#|-5-----5-----|-7-----5-----|-------------|-------------|| Guitars 1&2
C#|-3-33333-3333|-5-55553-3333|-2==========-|============-||
      ....  ....    ....  ....

Lead Into Next Section
C#|-------------|-------------|-------------|-------------||
G#|-------------|-------------|-------------|-------------||
E |-------------|-------------|-----5-------|-------------||
B |-----5-4-----|---------3-2-|-------------|-5-4---------||
F#|-2-2---------|---2-2-------|-3-------2-2-|-------------|| Guitars 1&2
C#|-0-0---------|---0-0-------|---------0-0-|-------------||

Riff 5
C#|-------------|-------------|-------------|-------------||4x
G#|-------------|---r---------|-------------|-------------||
E |-5-----------|-4---6-5-----|-------------|-5-----------||
B |-------2-----|-----4-3-----|-7-----6-----|-------------||
F#|-------------|-------------|-------------|-------------|| Guitars 1&2
C#|-------------|-------------|-------------|-------------||
    ,     ,                     ,     ,       ,

Riff 5a
C#|-------------|-------------|-------------|-------------||4x
G#|-------------|-------------|-------------|-------------||
E |-5-----------|-4-----------|-------------|-5-----------||
B |-------2-----|-----4-3-----|-7-----6-----|-------------||
F#|-------------|-------------|-------------|-------------|| Guitars 1&2
C#|-------------|-------------|-------------|-------------||
    ,     ,       ,   , ,       ,     ,       ,

Riff 6   (a) = Guitar 2 only 1st and 3rd time [last time hold last note for a bit)
C#|-------------|-------------|-------------|-------------------||4x
G#|-------------|-------------|-------------|-------------------||
E |-------------|-------------|-------------|------------(a)----||
B |-------------|-------------|-------------|-------6-----5-----||
F#|-6---5-------|-------3-----|-6---4-3-----|-4-----------------|| Guitars 1&2
C#|-4---3-1-----|-2-----------|-4---2-------|-------------------||
    .   . ,       ,     ,       .   . ,       ,     ,

Riff 7   (a) and () = Guitar 2 3rd time
C#|-----------------|-----------------||3x
G#|-----------------|--------(a)------||
E |-----------------|--------(3)------||
B |-2-------7---6---|---------3-------||
F#|-0-------5---4---|-4-4-----1-------|| Guitars 1&2
C#|-----------------|-2-2-------------||

Riff 7a   [Guitar 2 comes in 2nd time]
C#|-----------------|-----------------||4x
G#|-----------------|-----------------||
E |-----------------|-----------------||
B |-----------------|-----------------||
F#|-0-------5---4---|---------1-------|| Guitars 1&2
C#|-----------------|-2---------------||
    ,       ,   ,     ,       ,

End   () = Guitar 2
C#|-----------------||
G#|-----------------||
E |-----------------||
B |--------(7)--6---||
F#|-0-------5---4---|| Guitars 1&2
C#|-----------------||
    ,       ,




Darkthrone-Accumulation Of Generalization

Bass 3x

Riff 1  (t) = Guitar 2 last time
C#|-----------------|----|-----------------||
G#|-----------------|-4x-|-----------------||
E |----(4t5)--------|----|-----------------||
B |-----2t3---------|----|-----------------||
F#|-2-2---------3---|----|-2-2-------------|| Guitars 1&2
C#|-0-0---------1---|----|-0-0---------8\\-||

Riff 2  [Guitar 1 comes in second time]         Riff 2a   (a) and () = Guitar 2
C#|-------------|-------------||3x             |-------------|-------------||
G#|-------------|-------------||               |-------------|-------------||
E |-------------|-------------||               |-------------|--------(a)--||
B |---------8---|-7---4---5---||               |--------(8)--|(7)-(4)-(5)--||
F#|-5---6---6---|-5---2---3---|| Guitars 1&2   |(5)-(6)--6---|-5---2---3---|| Guitars 1&2
C#|-3---4-------|-------------||               |-3---4-------|-------------||


Riff 2b                                         Lead Into Next Section
C#|-------------|-------------||4x             |-------------||
G#|-------------|-------------||               |-------------||
E |-------------|-------------||               |-------------||
B |-------------|-------------||               |-------------||
F#|-------------|-6-----565-23|| Guitars 1&2   |-5-----------|| Guitar 2 Only
C#|-3-333-4-444-|-------------||               |-3-----------||
                  ,

Bass Section
C#|-------------|-------------||2x
G#|-------------|-------------||
E |-------------|-------------||
B |-------------|-------------||
F#|-r-----------|-------2-2-2-|| Guitars 1&2
C#|-------------|-------0-0-0-||
                        . . .

Riff 3
C#|-------------|-------------||2x
G#|-------------|-------------||
E |-------------|-------------||
B |-------------|-------------||
F#|-------------|-------------|| Guitars 1&2
C#|-3-33336-3333|-4-33335-5-5-||
      ....  ....    ..... . .

Riff 3a
C#|-------------|-------------||2x
G#|-------------|-------------||
E |-------------|-------------||
B |-------------|-------------||
F#|-9-----10----|-10----------|| Guitars 1&2
C#|-7-77778-7777|-8-77770-0-0-||
      ....  ....    ..... . .

Play Riff 3 - 2x

Riff 4
C#|-------------|-------------|-------------|-------------||2x
G#|-------------|-------------|-------------|-------------||
E |-------------|-------------|-------------|-------------||
B |-------------|-------------|-------------|-------------||
F#|-------1-111-|-------------|-------1-111-|-------2-----|| Guitars 1&2
C#|-2-222-------|-1-111-0-000-|-2-222-------|-1-111-0-----||

Riff 5
C#|-------------|-------------|-------------|-------------||2x
G#|-------------|-------------|-------------|-------------||
E |-------------|-------------|-------------|-------------||
B |-------------|-4-----------|-------------|-4-----------||
F#|-------3-----|-------------|-------3-----|-------5-----|| Guitars 1&2
C#|-2-----------|-------5---3-|-2-----------|-------3-----||
    ,     ,       ,             ,     ,       ,

Riff 6   (a) and () = Guitar 2 last time
C#|-------------|-------------|-------------|-------------||2x
G#|-------------|-------------|-------------|-------------||
E |-------------|-------------|-------------|------(a)----||
B |-------------|-------------|-------------|------(10)---||
F#|-------------|-7-----787---|-------------|-7-----8-----|| Guitars 1&2
C#|-1-----0-----|-----------8-|-1-----0-----|-------------||
                  ,                           ,     ,

Riff 6a   (a) = Guitar 2 last time
C#|-------------|-------------|-------------|-------------||2x
G#|-------------|-------------|-------------|-------------||
E |-------------|-------------|-------------|-------------||
B |-------------|-------------|-------------|------(a)----||
F#|-------------|-7-----787---|-------------|-7-----8-----|| Guitars 1&2
C#|-1-----0-----|-----------8-|-1-----0-----|-------------||
    ,     ,       ,                           ,

Riff 5a
C#|-------------|-------------|-------------|-------------||
G#|-------------|-------------|-------------|-------------||
E |-------------|-------------|-------------|-------------||
B |-------------|-4-----------|-------------|-4-----------||
F#|-------3-----|-------------|-------3-----|-------------|| Guitars 1&2
C#|-2-----------|-------5---3-|-2-----------|-------------||
    ,     ,       ,             ,     ,

Riff 7
C#|-----------------|-----------------|-----------------|-----------------|
G#|-----------------|-----------------|-----------------|-----------------|
E |-----------------|-----------------|-----------------|-----------------|
B |-----------------|-----------------|-5-----------6---|-5-----------6---|
F#|-5-------4-------|-5-------4-------|-----6---4-------|-----6---4-------|
C#|-3---------------|-3---------------|-----------------|-----------------|

C#|-----------------|-----------------|-----------------|-----------------||2x
G#|-----------------|-----------------|-----------------|-----------------||
E |-----------------|-----------------|-----------------|-----------------||
B |-----------------|-----------------|-3-----------4---|-3-----------4---||
F#|-5-------4-------|-5-------4-------|-----4---2-------|-----4---2-------|| Guitars 1&2
C#|-3---------------|-3---------------|-----------------|-----------------||

Riff 8
C#|-------------|-------------||4x
G#|-------------|-------------||
E |-------------|-------------||
B |-------------|-------------||
F#|-3-----4-----|-7-6-7-9-7-6-|| Guitars 1&2
C#|-1-11112-2222|-5-4-5-7-5-4-||
      ....  ....

Riff 9
C#|-------------|-------------|-------------||4x
G#|-------------|-------------|-------------||
E |-------------|-------------|-------------||
B |-------------|-----3-2-----|-----4-3-----||
F#|-5-----3-----|-0-2---------|-0-3---------|| Guitars 1&2
C#|-3-333-1-111-|-------------|-------------||
      ...   ...

Riff 10
C#|-------------|-------------|-------------|-------------||3x
G#|-------------|-------------|-------------|-------------||
E |-------------|-------------|-------------|-------------||
B |-------------|-------------|-------------|-------------||
F#|-3-----------|-3-----------|-4-----------|-4-----------|| Guitars 1&2
C#|-------4-2-1-|-------4-2-1-|-------5-4-5-|-------5-4-5-||
    ,             ,             ,             ,

End
C#|-------------|-------------|-------------|-----------------||
G#|-------------|-------------|-------------|-----------------||
E |-------------|-------------|-------------|-----------------||
B |-------------|-------------|-------------|-----------------||
F#|-3-----------|-3-----------|-4-----------|-4-----------2---|| Guitars 1&2
C#|-------4-2-1-|-------4-2-1-|-------5-4-5-|-------5-4-1-0---||
    ,             ,             ,             ,




Darkthrone-Neptune Towers

Riff 1   () = Guitar 2
C#|-----------------|-----------------|-----------------|-----------------|
G#|-----------------|-----------------|-----------------|-----------------|
E |-----------------|-----------------|-----------------|-----------------|
B |-----------------|-2-3-2t3---1-----|-----------------|-----------------|
F#|-2-2-------------|---------3-------|-3-3-------------|-8-------3-------|
C#|-0-0-------------|-----------------|-1-1-------------|-6---5t6-3-------|

C#|-----------------|-----------------|-----------------|-----------------|
G#|-----------------|-----------------|-----------------|-----------------|
E |-----------------|-----------------|-----------------|-----------------|
B |-----------------|-2-3-2t3---1--0t1|-----------------|-----------------|
F#|-2-2-------------|---------3-------|-3-3-------------|-8-------3-------|
C#|-0-0-------------|-----------------|-1-1-------------|-6---5t6-3-------|

C#|-----------------|-----------------|-----------------|-----------------||
G#|-----------------|-----------------|-----------------|-----------------||
E |-----------------|(4-5-4t5)-(3)----|-----------------|-----------------||
B |-----------------|-2-3-2t3(5)1-----|-----------------|-----------------||
F#|-2-2-------------|---------3-------|-3-3-------------|-8-------3-------|| Guitars 1&2
C#|-0-0-------------|-----------------|-1-1-------------|-6---5t6-3-------||

Riff 2   [watch the timing]
C#|-----------------|-------------|-----------------|-------------||2x
G#|-----------------|-------------|-----------------|-------------||
E |-----------------|-------------|-----------------|-------------||
B |---------9---8---|---------3---|-----------------|-------------||
F#|-2---8---7---6---|-3---4---1---|---------7---6---|---------1---|| Guitars 1&2
C#|-0---6-----------|-1---2-------|-0---6-----------|-1---2-------||
                                    ,   ,   ,   ,     ,   ,   ,

Pre-Riff 3
C#|-----------------|-----------------|-----------------|-----------------||
G#|-----------------|-----------------|-----------------|-----------------||
E |-----------------|-----------------|-----------------|-----------------||
B |-----------------|-----------7-----|-----------------|-----------7-----||
F#|-r---------------|-0-----343-------|-0-----343-------|-0-----343-------|| Guitar 1
C#|-----------------|-----------------|-----------------|-----------------||
  |                   ,         ,       ,                 ,         ,     |
C#|-----------------|-----------------|-----------------|-----------------||
G#|-----------------|-----------------|-----------------|-----------------||
E |-----------------|-----------------|-----------------|-----------------||
B |-----------------|-----------7-----|-----------------|-----------7-----||
F#|-0-----343-------|-0-----343-------|-0-----343-------|-0-----343-------|| Guitar 2
C#|-----------4-----|-----------------|-----------4-----|-----------------||
    ,         ,       ,         ,       ,                 ,         ,

Riff 3
C#|-----------------|-----------------||2x
G#|-----------------|-----------------||
E |-----------------|-----------------||
B |-----------7-----|-----------------||
F#|-0-----343-------|-0-----343-6-----|| Guitars 1&2
C#|-----------------|-----------------||
    ,         ,       ,         ,

Riff 3a
C#|-----------------|-----------------||2x
G#|-----------------|-----------------||
E |-----------------|-----------------||
B |-----------------|-----------4-----||
F#|-0000003431111111|-000000343-------|| Guitars 1&2
C#|-----------------|-----------------||
    ................  ......... ,

Lead Into Bass Solo   () = Guitar 2
C#|-----------------|-----------------||
G#|-----------------|-----------------||
E |-----------------|-5---------------||
B |-3---------------|(3)--------------||
F#|-----------------|-----------------|| Guitars 1&2
C#|-----------------|-----------------||

Bass Solo
C#|-------------|-------------|-------------|-------------||
G#|-------------|-------------|-------------|-------------||
E |-------------|-------------|-------------|-------------||
B |-r-------7---|-r-----7-----|------(6)----|------(9)----||
F#|---------5---|---------7---|-----4-4-6---|-----7-9-9---|| Guitars 1&2
C#|-------------|-------------|-0-0---------|-0-0---------||

Riff 4   () = Guitar 2
C#|-------------|-------------|-------------|-------------|
G#|-------------|-------------|-------------|-------------|
E |-------------|-------------|-------------|-------------|
B |-------5-----|-------7-----|-------6-----|-------9-----|
F#|---0-3---5---|---0-5---7---|---0-4---6---|---0-7---9---|
C#|-0(0)--------|-0(0)--------|-0(0)--------|-0(0)--------|

C#|-------------|-------------|-------------|-------------||
G#|-------------|-------------|-------------|-------------||
E |------(7)----|------(9)----|------(8)----|------(11)---||
B |----(5)5(7)--|----(7)7(9)--|----(6)6(8)--|----(9)9(11)-||
F#|---0-3---5---|---0-5---7---|---0-4---6---|---0-7---9---|| Guitars 1&2
C#|-0(0)--------|-0(0)--------|-0(0)--------|-0(0)--------||

Riff 5   [watch the timing]
C#|-----------------|-----------------||4x
G#|-----------------|-----------------||
E |-----------------|-----------------||
B |-7/8-------------|-7/8--------1--3-||
F#|-5/6------4---3--|-5/6-----2-------|| Guitars 1&2
C#|------3----------|------1----------||
         ,   ,   ,         ,  ,  ,

Riff 6   () = Guitar 2, 4th time
C#|-----------------|-----------------|-----------------|-----------------||5x
G#|-----------------|-----------------|-----------------|-----------------||
E |--------(6)------|(5)--------------|-----------------|-----------------||
B |---------6-------|-5---------------|(6-=============)|(===============)||
F#|-2---------------|--------(7)------|-6-==============|-================|| Guitars 1&2
C#|-0---------------|---------7-------|-----------------|-----------------||

Riff 7   [Guitar 2 comes in 2nd time]
C#|-----------------|-----------------||6x
G#|-----------------|-----------------||
E |-----------------|-----------------||
B |---------55554444|-----------------||
F#|-----------------|-33335555--------|| Guitars 1&2
C#|-00003333--------|---------55554444||
    ................  ................

Riff 7a   [Guitar 2 comes in 2nd time]
C#|-----------------|-----------------||7x
G#|-----------------|-----------------||
E |-----------------|-----------------||
B |---------5---4---|-----------------||
F#|-----------------|-3---5-----------|| Guitars 1&2
C#|-0---3-----------|---------5---4---||
    ,   ,   ,   ,     ,   ,   ,   ,

End
C#|-------||
G#|-------||
E |-------||
B |----r--||
F#|-2-----|| Guitars 1&2
C#|-0-----||




Darkthrone-Sempiternal Sepulchrality

Intro
C#|-----------------|-----------------|-----------------|-----------------||
G#|-----------------|-----------------|-----------------|-----------------||
E |-----------------|-----------------|-----------------|-----------------||
B |-5---------------|-2---------------|-3---------------|-7---------------||
F#|-5---------------|-2---------------|-3---------------|-7---------------|| Guitars 1&2
C#|-3---------------|-0---------------|-1---------------|-5---------------||
  |                                                                       |
C#|-----------------|-----------------|-----------------|-----------------||
G#|-----------------|-----------------|-----------------|-----------------||
E |-----------------|-----------------|-----------------|-------2-4-2-----||
B |-------5-7-5-----|-------2-4-2-----|-------3-5-3-----|-2---2-------2---||
F#|-5---5-------5---|-2---2-------2---|-3---3-------3---|-----------------|| Guitar 3
C#|-----------------|-----------------|-----------------|-----------------||

Riff 1   () = Guitar 2
C#|-------------|-------------|-------------|-------------||2x
G#|-------------|-------------|-------------|-------------||
E |-------------|-------------|-------------|-------------||
B |-------------|-------------|--(4-7-6)----|--(3-6-5)----||
F#|---2-5-4-----|---1-4-3-----|(5)2-5-4-----|(4)1-4-3-----|| Guitars 1&2
C#|-3-----------|-2-----------|-3-----------|-2-----------||
          ,             ,             ,             ,

Riff 2
C#|-------------|-------------|-------------|-------------||
G#|-------------|-------------|-------------|-------------||
E |-------------|-------------|-------------|-------------||
B |-------6---5-|-------5---4-|-------6---5-|-------------||
F#|-r-----4---3-|-r-----3---2-|-r-----4---3-|-------------|| Guitar 1
C#|-------------|-------------|-------------|-1-111-2-----||
  |                                                       |
C#|-------------|-------------|-------------|-------------||
G#|-------------|-------------|-------------|-------------||
E |-------------|-------------|-------------|-------------||
B |-------6---5-|-------5---4-|-------6---5-|-------------||
F#|-------4---3-|-------3---2-|-------4---3-|-------------|| Guitar 2
C#|-0-1-4-------|-0-1-3-------|-0-1-4-------|-1-111-2-----||

Riff 2a
C#|-------------|-------------|-------------|-------------||
G#|-------------|-------------|-------------|-------------||
E |-------------|-------------|-------------|-------------||
B |-------------|-------------|-------------|-------------||
F#|-------4---3-|-------3---2-|-------4---3-|-------------|| Guitars 1&2
C#|-0-1-4-------|-0-1-3-------|-0-1-4-------|-1-111-2-----||

Pre-Riff 3
C#|-----------------|-----------------||
G#|-----------------|-----------------||
E |-----------------|---------|  3  |-||
B |-----------------|-----------------||
F#|-r---------------|-2---2---5--6--3-|| Guitar 1
C#|-----------------|-0---0---3--4--1-||
  |                                   |
C#|-----------------|-----------------||
G#|-----------------|-----------------||
E |---------|  3  |-|---------|  3  |-||
B |-----------------|-----------------||
F#|-7---------------|-2---2---5--6--3-|| Guitar 2
C#|---------3--4--2-|-0---0---3--4--1-||
    ,

Riff 3   () = Guitar 2, 3rd time
C#|-----------------|-----------------||3x
G#|-----------------|-----------------||
E |---------|  3  |-|---------|  3  |-||
B |(9)--------------|-----------------||
F#|-7---------------|-2---2---5--6--3-|| Guitars 1&2
C#|---------3--4--2-|-0---0---3--4--1-||
    ,

Lead Intro Next Section
C#|-----------------||
G#|-----------------||
E |-----------------||
B |-----------------||
F#|-2---------------|| Guitars 1&2
C#|-0---------------||

Riff 4   [really long riff]
C#|-----------------|-----------------|-----------------|-----------------|
G#|-----------------|-----------------|-----------------|-----------------|
E |-----------------|-----------------|-----------------|-----------------|
B |-----------------|-------------6---|-----------------|-------------5---|
F#|-----4---3---6---|-----4---3-------|-----4---3---6---|-----4---3-------|
C#|-3---------4-----|-3---------4-----|-3---------4-----|-3---------4-----|
    ,   ,   , , ,     ,   ,   , , ,     ,   ,   , , ,     ,   ,   , , ,
C#|-----------------|-----------------|-----------------|-----------------||2x
G#|-----------------|-----------------|-----------------|-----------------||
E |-----------------|-----------------|-----------------|-----------------||
B |-----------------|-------------4---|-----------------|-------------3---||
F#|-----2---1---4---|-----2---1-------|-----2---1---4---|-----2---1-------|| Guitars 1&2
C#|-1---------2-----|-1---------2-----|-1---------2-----|-1---------2-----||
    ,   ,   , , ,     ,   ,   , , ,     ,   ,   , , ,     ,   ,   , , ,

Pre-Riff 5
C#|-------------|-------------||
G#|-------------|-------------||
E |-------------|-------------||
B |-------------|-------------||
F#|-----5-4---7-|---5-4-------|| Guitar 2 only
C#|-0-3-----5---|-0-----5-454-||

Riff 5
C#|-------------|-------------||
G#|-------------|-------------||
E |-------------|-------------||
B |-------------|-------------||
F#|-----5-4---7-|---5-4-------|| Guitars 1&2
C#|-0-3-----5---|-0-----5-454-||

Riff 5a   () = Guitar 2
C#|-------------|-------------||
G#|-------------|-------------||
E |-------------|-------------||
B |-------------|--(7-6)------||
F#|-----5-4---7-|---5-4(7-676)|| Guitars 1&2
C#|-0-3-----5---|-0-----5-454-||

Riff 5b   () = Guitar 2
C#|-------------|-------------||2x
G#|-------------|-------------||
E |-------------|-------------||
B |----(7-6)-(9)|--(7-6)------||
F#|--(5)5-4(7)7-|---5-4(7-676)|| Guitars 1&2
C#|-0-3-----5---|-0-----5-454-||

Riff 6   [Guitar 1 comes in 2nd time]
C#|-----------------||5x
G#|-----------------||
E |-----------------||
B |-----5-----------||
F#|---------4-------|| Guitars 1&2
C#|-2-----------1---||
    ,   ,   ,   ,

Riff 7   [Guitar 1 comes in 2nd time, slow down 3rd time]
C#|-----------------|-----------------||3x
G#|-----------------|-----------------||
E |-----------------|-----------------||
B |-2-------2-------|-2---0-----------||
F#|-----3-------2---|--------32-------|| Guitars 1&2
C#|-----------------|-------------3---||
    ,   ,   ,   ,     ,   ,


Riff 7a
C#|-----------------|-----------------|-----------------|-----------------||2x
G#|-----------------|-----------------|-----------------|-----------------||
E |-----------------|-----------------|-----------------|-----------------||
B |-----------------|-----------------|-----------------|-----------------||
F#|-------3322222222|-55555533--------|-------3322222222|-----------------|| Guitars 1&2
C#|-000000----------|---------33333333|-000000----------|-3333334411111111||
    ................  ................  ................  ................

Play Pre-Riff 3
Play Riff 3 - 3x
[ Tab from: http://www.guitaretab.com/d/darkthrone/96534.html ]
Pre-Riff 8
C#|-----------------|-----------------|-----------------|-----------------||
G#|-----------------|-----------------|-----------------|-----------------||
E |-----------------|-----------------|-----------------|-----------------||
B |-----------------|-----------------|-----------------|-2---------------||
F#|-r---------------|-----------------|-2-------32-32-32|-----------------|| Guitar 1
C#|-----------------|-3-------0-------|-----------------|---------1-------||
  |                                     ,       ,, ,, ,,  ,       ,
C#|-----------------|-----------------|-----------------|-----------------||
G#|-----------------|-----------------|-----------------|-----------------||
E |-----------------|-----------------|-----------------|-----------------||
B |-----------------|-----------------|-----------------|-2---------------||
F#|-2-------32-32-32|-----------------|-2-------32-32-32|-----------------|| Guitar 2
C#|-----------------|-3-------0-------|-----------------|---------1-------||
    ,       ,, ,, ,,                    ,       ,, ,, ,,  ,       ,

Riff 8
C#|-----------------|-----------------|-----------------|-----------------||2c
G#|-----------------|-----------------|-----------------|-----------------||
E |-----------------|-----------------|-----------------|-----------------||
B |-----------------|-----------------|-----------------|-2---------------||
F#|-2-------32-32-32|-----------------|-2-------32-32-32|-----------------|| Guitars 1&2
C#|-----------------|-3-------0-------|-----------------|---------1-------||
    ,       ,, ,, ,,  ,       ,         ,       ,, ,, ,,  ,       ,

Riff 9   [Both guitars]
C#|-----------------|----|-----------------|---------------|----|-----------------||
G#|-----------------|-5x-|-----------------|---------------|-8x-|-----------------||
E |-----------------|----|-----------------|---------------|----|-----------------||
B |-----------------|----|-----------------|---------------|----|-----------------||
F#|-----------------|----|---------------r-|---------------|----|---------2-------||
C#|-0-1-4---0-1-5---|----|-0-1-4---0-1-5---|-0-1-4---0-1-5-|----|-0-1-4---0-------||
    , , ,   , , ,          , , ,   , ,       , , ,   , , ,        , , ,




Darkthrone-Grave With A View

Intro
C#|-----------------|-----------------|-----------------|-----------------||2x
G#|-----------------|-----------------|-----------------|-----------------||
E |-----------------|-----------------|-----------------|-----------------||
B |-----------------|-----------------|-----------------|-----------------||
F#|-2---2---5---6---|-2---2---5---8---|-4---4---7-------|-4---4---7-------|| Guitars 1&2
C#|-2---3---3---4---|-2---3---3---6---|-4---5---5-------|-4---5---5-------||

Riff 1   [Guitar 1 comes in 2nd time]
C#|-----------------|-----------------|-----------------|-----------------||3x
G#|-----------------|-----------------|-----------------|-----------------||
E |-----------------|-----------------|-----------------|-----------------||
B |-----------------|-----109-10------|-----------------|-----109-----8---||
F#|-----------------|-7---------------|---------3-2-----|-7-------10------|| Guitar 1&2
C#|-1---4-3-0-------|-----------------|-1---4-3-----2---|-----------------||
    ,   , , ,         ,   , , ,         ,   , , , , ,     ,   , , ,

Lead Into Next Section   () = Guitar 2
C#|-------------|-------------|-------------|-------------||
G#|-------------|-------------|-------------|-------------||
E |(9)-(10)-----|-------------|(9)-(10)-----|-------------||
B |------(7)-(8)|(4)----------|------(7)-(8)|(4)----------||
F#|-------------|------(5)----|-------------|-------3-3-3-|| Guitars 1&2
C#|-------------|-------------|-------------|-------1-1-1-||

Riff 2   () = Guitar 2, 2nd time
C#|-------------|-------------|-------------|-------------||3x
G#|-------------|-------------|-------------|-------------||
E |(9)-(10)-----|-------------|(9)-(10)-----|-------------||
B |-7---8(7)-(8)|(4)----------|-7---8(7)-(8)|(4)----------||
F#|-------5---6-|-2----(5)----|-------5---6-|-2-----3-3-3-|| Guitars 1&2
C#|-------------|-------3-----|-------------|-------1-1-1-||
    ,   , ,   ,   ,     ,       ,   , ,   ,   ,

Riff 3   () = Guitar 3, 4th time
C#|-------------|-------------|-------------||4x
G#|-------------|-------------|-------------||
E |-------------|(9)----------|-------------||
B |-------------|-7(9)--------|-----1-------||
F#|-------------|---7(9)------|---2---------|| Guitars 1&2
C#|-4---2---5---|-----7---1---|-------------||
                 (, , ,) - Guitar 3 only

Riff 4
C#|-------------|-------------|-------------|-------------||4x
G#|-------------|-------------|-------------|-------------||
E |-------------|-------------|-------------|-------------||
B |-------------|-------------|-------5-----|-4t5-------2-||
F#|---3---2-----|-----------3-|-----6-------|-------3-----|| Guitars 1&2
C#|-1---4-------|-0-3-4-1-----|-4-----------|-------------||
    , , , ,       , , ,

Lead Into Solo   () = Guitar 2
C#|-------------|-------------||
G#|-------------|-------------||
E |(9)-(10)-----|-------------||
B |------(7)-(8)|(4)----------||
F#|-------------|-------5-----|| Guitars 1&2
C#|-------------|-------3-----||

Play Riff 2 - 2x

End Riff
C#|-------------|-------------|-------------|-------------|
G#|-------------|-------------|-------------|-------------|
E |-------------|-------------|-------------|-------------|
B |-------------|-------------|-4---3-5-----|-0---3-6-----|
F#|-5---4-6-----|-2-==========|-------------|-------------|
C#|-3---2-4-----|-0-==========|-------------|-------------|
                                ,   , ,       ,
C#|-------------|-------------|-------------|-------------||3x
G#|-------------|-------------|-------------|-------------||
E |-------------|-------------|-------------|-------------||
B |-------------|-------------|-2---1-3-----|-------4-----||
F#|-5---4-6-----|-2-==========|-------------|-3---6-------|| Guitars 1&2
C#|-3---2-4-----|-0-==========|-------------|-------------||
                                ,   , ,       ,



Darkthrone-Iconoclasm Sweeps Cappadocia

Riff 1   () = Guitar 2
C#|-------------|-------------|-------------|-------------|-------------|
G#|-------------|-------------|-------------|-------------|-------------|
E |-------------|-------------|------(7)----|-------------|-------------|
B |-------5-----|-------7-----|-------5-----|------(9)----|-------6-r---|
F#|---5-6-------|---5-6-------|---5-6-------|---5-6-7-----|---5-6-------|
C#|-0-----------|-0-----------|-0-----------|-0-----------|-0-----------|

C#|-------------|-------------|-------------|-------------|-------------||
G#|-------------|-------------|-------------|-------------|-------------||
E |-------------|-------------|------(7)----|-------------|-------8\----||
B |-------5-----|-------7-----|-------5-----|------(9)----|-------6\----||
F#|---5-6-------|---5-6-------|---5-6-------|---5-6-7-----|---5-6-------|| Guitars 1&2
C#|-0-----------|-0-----------|-0-----------|-0-----------|-0-----------||

Riff 2   [] = Donít play 1st time
C#|-------------|-------------|-------------|-------------||2x
G#|-------------|-------------|-------------|-------------||
E |-------------|-------------|-------------|-------------||
B |[9]----------|-2-----------|-------------|-------------||
F#|[7]----------|-0-----------|-2-----------|-5-----------|| Guitar 1
C#|-------------|-------------|-0-----------|-3-----------||

C#|-------------|-------------|-------------|-------------||2x
G#|-------------|-------------|-------------|-------------||
E |-------------|-9-----------|-------------|-------------||
B |[9]----------|-7-----------|-------------|-5-----------||
F#|[7]----------|-0-----------|-2-----------|-------------|| Guitar 2
C#|-------------|-------------|-0-----------|-3-----------||

Riff 3
C#|-----------------|-----------------|-----------------|-----------------||
G#|-----------------|-----------------|-----------------|-----------------||
E |-----------------|-----------------|-----------------|-----------------||
B |-9---------------|-----------------|-9---------------|-----------------||
F#|---------5-------|---------10------|---------5-------|---------10------|| Guitar 1
C#|-----------------|-7---------------|-----------------|-7---------------||
  | ,       ,         ,       ,         ,       ,         ,               |
C#|-----------------|-----------------|-----------------|-----------------||
G#|-----------------|-----------------|-----------------|-----------------||
E |-----------------|-----------------|-----------------|-----------------||
B |-----------------|-9-------12------|-----------------|-9-------12------||
F#|-7-------9-------|-----------------|-7-------9-------|-----------------|| Guitar 2
C#|-----------------|-----------------|-----------------|-----------------||
    ,       ,         ,       ,         ,       ,         ,

Riff 4   () = Guitar 2, 2nd time
C#|-----------------|-----------------||2x
G#|-----------------|-----------------||
E |-----------------|-----------------||
B |-----------------|----(10)(6)------||
F#|-----8-==========|-----8---7-------|| Guitars 1&2
C#|-0-7-------------|-0-7-------------||

Riff 4a   () = Guitar 2
C#|-----------------|-----------------|--------||
G#|-----------------|-----------------|--------||
E |-----------------|-----------------|--------||
B |-----------------|----(10)(9-=====)|(======)||
F#|-----8-==========|-----8---7-======|-=======|| Guitars 1&2
C#|-0-7-------------|-0-7-------------|--------||

Riff 5
C#|-------------|-------------|-------------|-------------|
G#|-------------|-------------|-------------|-------------|
E |-------------|-------------|-------------|-------------|
B |-------------|-------------|-------------|-------------|
F#|-9-----9-----|-9-----7-----|-6-----6-----|-6-----5-----|
C#|-7-77777-7777|-7-7777---8--|-4-44444-4444|----------4--|
      ....  ....    ....,         ....  ....  ,     ,  ,
C#|-------------|-------------|-------------|-------------||3x
G#|-------------|-------------|-------------|-------------||
E |-------------|-------------|-------------|-------------||
B |-------------|-------------|-------------|----8--7-----||
F#|-9-----9-----|-9-----7-----|-6-----6-----|-7--6--5--6--|| Guitars 1&2
C#|-7-77777-7777|-7-7777---8--|-4-44444-4444|-5--------4--||
      ....  ....    ....,         ....  ....

Lead Into Next Section
C#|-----------------|-----------------|-----------------|---------||
G#|-----------------|-----------------|-----------------|---------||
E |-----------------|-----------------|-----------------|---------||
B |-----------------|-3-------------7-|-----------------|-3-------||
F#|-6-------2-------|-1-------5-----5-|-6-------2-------|-1-------|| Guitars 1&2
C#|-4-------0-------|---------3-------|-4-------0-------|---------||

Riff 6
C#|-------------|-------------|-------------||2x
G#|-------------|-------------|-------------||
E |-------------|-------------|-------------||
B |-------------|---------2-3-|-2-----------||
F#|---------5-6-|-------------|---5-3-4-----|| Guitars 1&2
C#|-2-----------|-3---1-------|---------4---||

Riff 7   [donít trem pick last note last time]
C#|-----------------|-----------------|-----------------|-----------------|
G#|-----------------|-----------------|-----------------|-----------------|
E |-----------------|-----------------|-----------------|-----------------|
B |-------5---------|-----------------|-------5---------|-----------------|
F#|-----3-------3-2-|-----2-5---------|-----3-------3-2-|-----2-5---------|
C#|-3---------3-----|-4---------------|-3---------3-----|-4---------------|
                      ,   , ,                             ,   , ,
C#|-----------------|-----------------|-----------------|-----------------||
G#|-----------------|-----------------|-----------------|-----------------||
E |-----------------|-----------------|-----------------|-----------------||
B |-------4---------|-----------------|-------1---------|-----------------||
F#|-----2-------2-1-|-----1-4---------|-----2-------2-1-|-----1-4---------|| Guitars 1&2
C#|-2---------2-----|-3---------------|-2---------2-----|-3---------------||
                      ,   , ,                             ,   , ,

Riff 8   (t) = Guitar 2 trill note below a semi-tone 2nd time
C#|-------------|-------------|-------------|-------------||2x
G#|-------------|-------------|-------------|-------------||
E |-----6---7---|-------------|--------(t)--|--------(t)--||
B |-------------|-3---7---6---|-----7-8-7---|-----5-6-5---||
F#|-4-----------|-------------|-----------8-|-----------6-|| Guitars 1&2
C#|-------------|-------------|-5-----------|-4-----------||

Lead Into Next Section   (a) = Guitar 2
C#|-------------|-------------|-------------|-------------||
G#|-------------|-------------|-------------|--------(a)--||
E |-------------|-------------|-------------|---------3---||
B |-------------|-3-4-3-2-3---|-------------|-3-4-3-2-----||
F#|-----2-3-4-3-|-------------|-----2-3-4-3-|-------------|| Guitars 1&2
C#|-1-----------|-------------|-1-----------|-------------||

Riff 9
C#|-------------|-------------||2x
G#|-------------|-------------||
E |-------------|-------------||
B |-----4---5---|-------------||
F#|-2---2---3---|-------------||
C#|-0-----------|-4---3---7---||

Riff 10
C#|-------------|-------------|-------------|-------------||6x
G#|-------------|-------------|-------------|-6-----6t7-6-||
E |-------------|-------2--3--|-------5--6--|-------------||
B |-------3--4--|-0-----------|-3-----------|-------------||
F#|-0000--------|-------------|-------------|-------------|| Guitars 1&2
C#|-1111--------|-------------|-------------|-------------||
          ,  ,    ,     ,  ,    ,     ,  ,    ,

Riff 11
C#|-------------|-------------|-------------|-------------||
G#|-------------|-------------|-------------|-------------||
E |-------------|-------------|-------------|---------7---||
B |-------------|-------------|-----9---10--|-----7---5---||
F#|-r-----------|-------------|-7---7---8---|-8---5-------|| Guitar 1
C#|-------------|-------------|-5-----------|-6-----------||
  |                                                       |
C#|-------------|-------------|-------------|-------------||
G#|-------------|-------------|-------------|-------------||
E |-------------|---------7---|-------------|---------7---||
B |-----9---10--|-----7---5---|-----9---10--|-----7---5---||
F#|-7---7---8---|-8---5-------|-7---7---8---|-8---5-------|| Guitar 2
C#|-5-----------|-6-----------|-5-----------|-6-----------||

Riff 11a   (a) and () = Guitar 3
C#|-------------|-------------|-------------|-------------|
G#|-------------|-------------|-------------|-------------|
E |-------------|---------5---|-------------|---------5---|
B |-----7---8---|-----5---3---|-----7---8---|-----5---3---|
F#|-5---5---6---|-6---3-------|-5---5---6---|-6---3-------|
C#|-3-----------|-4-----------|-3-----------|-4-----------|

C#|-------------|-------------|-------------|-------------|
G#|-------------|--------(8)--|-------------|--------(8)--|
E |----(9)-(10)-|----(7)--7---|----(9)-(10)-|----(7)--7---|
B |(7)--9---10--|(8)--7---5---|(7)--9---10--|(8)--7---5---|
F#|-7---7---8---|-8---5-------|-7---7---8---|-8---5-------|
C#|-5-----------|-6-----------|-5-----------|-6-----------|

C#|-------------|-------------|-------------|--------(a)--|
G#|-------------|--------(6)--|-------------|--------(6\)-|
E |----(7)-(8)--|----(5)--5---|----(7)-(8)--|----(5)--5---|
B |(5)--7---8---|(6)--5---3---|(5)--7---8---|(6)--5---3---|
F#|-5---5---6---|-6---3-------|-5---5---6---|-6---3-------|
C#|-3-----------|-4-----------|-3-----------|-4-----------|

C#|-------------|-------------|-------------|-------------|
G#|-------------|-------------|-------------|-------------|
E |-------------|---------7---|-------------|---------7---|
B |-----9---10--|-----7---5---|-----9---10--|-----7---5---|
F#|-7---7---8---|-8---5-------|-7---7---8---|-8---5-------|
C#|-5-----------|-6-----------|-5-----------|-6-----------|

C#|-------------|-------------|-------------|-------------||
G#|-------------|-------------|-------------|-------------||
E |-------------|---------5---|-------------|---------5---||
B |-----7---8---|-----5---3---|-----7---8---|-----5---3---||
F#|-5---5---6---|-6---3-------|-5---5---6---|-6---3-------|| Guitars 1&2
C#|-3-----------|-4-----------|-3-----------|-4-----------||

End
C#|-------------|-------------|-------------|-------------|
G#|-------------|-------------|-------------|-------------|
E |-------------|---------7---|-------------|---------7---|
B |-----9---10--|-----7---5---|-----9---10--|-----7---5---|
F#|-7---7---8---|-8---5-------|-7---7---8---|-8---5-------|
C#|-5-----------|-6-----------|-5-----------|-6-----------|

C#|-------------|-------------|-------------|-------------||
G#|-------------|-------------|-------------|-------------||
E |-------------|---------5---|-------------|---------5---||
B |-----7---8---|-----5---3---|-----7---8---|-----5---3---||
F#|-5---5---6---|-6---3-------|-5---5---6---|-6---3-------|| Guitars 1&2
C#|-3-----------|-4-----------|-3-----------|-4-----------||




Darkthrone-Nor The Silent Whispers

Riff 1   () = Guitar 2, 4th time
C#|-----------------|-----------------||4x
G#|-----------------|-----------------||
E |-----------------|-----------------||
B |-----------------|--(5-7-8)--------||
F#|-2-----2-2-----2-|-2-3-5-6(7)-(5)--|| Guitars 1&2
C#|-0-----0-0-----0-|-0-------5---3---||

Riff 2              |1., 3.           |2.               |
C#|-----------------|-----------------|-----------------||
G#|-----------------|-----------------|-----------------||
E |---------9-------|-----------------|-----------------||
B |-----------------|-----7-8-7-------|-----7-8-7-------||
F#|-----7---------7-|---9-------9-10--|---9-------9-8---|| Guitar 1&2
C#|-0-----------0---|-----------------|-----------------||

Riff 2a             |1.               |2.               |3.
C#|-----------------|-----------------|-----------------|-----------------||
G#|-----------------|-----------------|-----------------|-----------------||
E |---------9-------|-----------------|-----------------|-----------------||
B |-----------------|-----7-8-7-------|-----7-8-7-------|-----7-8-7-------||
F#|-----7---------7-|---9-------9-8---|---9-------9-10--|---9-------9-8---|| Guitar 1&2
C#|-0-----------0---|-----------------|-----------------|-----------------||
    ,   ,   ,     ,     , , , , , ,       , , , , , ,

Riff 3
C#|-------------|-------------|-------------|-------------||
G#|-------------|-------------|-------------|-------------||
E |-------------|-------------|-------------|-------------||
B |-------------|-------------|-------------|-----------3-||
F#|-r-----------|-------------|-------5-----|-----------3-|| Guitar 2
C#|-------------|-------------|-3-333-----3-|-2-223-1-2---||
  |                                                       |
C#|-------------|-------------|-------------|-------------||
G#|-------------|-------------|-------------|-------------||
E |-------------|-------------|-------------|-------------||
B |-------5-----|-----------3-|-------------|-----------3-||
F#|-------------|---------3---|-------5-----|-----------3-|| Guitar 2
C#|-3-333-----3-|-2-222-1-----|-3-333-----3-|-2-223-1-2---||

Riff 3a
C#|-------------|-------------|-------------|-------------||2x
G#|-------------|-------------|-------------|-------------||
E |-------------|-------------|-------------|-------------||
B |-------5-----|-----------3-|-------------|-----------3-||
F#|-------------|---------3---|-------5-----|-----------3-|| Guitars 1&2
C#|-3-333-----3-|-2-222-1-----|-3-333-----3-|-2-223-1-2---||

Riff 4   () = Guitar 2, 3rd and 4th time
C#|-----------------|-----------------|-----------------|-----------------||4x
G#|-----------------|-----------------|-----------------|-----------------||
E |-----------------|-----------------|-----------------|-----------------||
B |---------4-======|=======-(2)------|---------4-======|-===-7---7---7-7-||
F#|-----------------|---------3-------|-----------------|-----------------|| Guitars 1&2
C#|-0---4-----------|-----------------|-0---4-----------|-----------------||

Lead Into Next Section
C#|-------------|-------------|-------------|
G#|-------------|-------------|-------------|
E |-------------|-------------|-------------|
B |-------9-8-6-|-----6---6---|-------------|
F#|-----7-------|-7-5---------|-4-------4---|
C#|-6-8---------|-------------|---5-3-----5-|

C#|-------------|-------------|-------------|-------------|
G#|-------------|-------------|-------------|-------------|
E |-------------|-------------|-------------|-------------|
B |----------5--|-------------|----9-----10-|----12----8--|
F#|----4--3-----|-5-----4--0--|-7-----8-----|-10----6-----|
C#|-2-----------|----6--------|-------------|-------------|
    ,  ,  ,  ,    ,  ,  ,  ,    ,  ,  ,   ,   ,  ,  ,  ,
C#|-------------|-------------|-------------|-------------|----------||
G#|-------------|-------------|-------------|-------------|----------||
E |-------------|-------------|-------------|-------------|----------||
B |-------------|-------------|-------------|-------------|-9-----5--||
F#|----------2--|-2--3-----6--|-7--------2--|-3-----6--7--|----3-----|| Guitars 1&2
C#|-5--0--1-----|-------3-----|----0--1-----|----3--------|----------||
    ,  ,  ,  ,    ,  ,  ,  ,    ,  ,  ,   ,   ,  ,  ,  ,    ,  ,  ,

Lead Into Solo
C#|-----------------|-----------------||
G#|-----------------|-----------------||
E |-----------------|-----------------||
B |-----------------|-----------------||
F#|-6-------8---7---|-3-3-----4-3-----|| Guitars 1&2
C#|-4---------------|-1-1-----2-1-----||

Solo Riff
C#|-----------------|-----------------|-----------------|-----------------||4x
G#|-----------------|-----------------|-----------------|-----------------||
E |-----------------|-----------------|-----------------|-----------------||
B |---------3-------|-----2---3-------|-----------------|-----------------||
F#|-2-2-2-2-1-------|-----0---1-------|-2-2-2-2-5-------|-----3---4-3-----|| Guitars 1&2
C#|-0-0-0-0---------|-----------------|-0-0-0-0-3-------|-----1---2-1-----||
      . . .                               . . .

Play Riff 2
Play Riff 2a
Play Riff 3
Play Riff 3a - 2x

End
C#|-------------|-------------||
G#|-------------|-------------||
E |-------------|-------------||
B |-------5-----|---------2-3-||
F#|-------------|---------2-3-|| Guitars 1&2
C#|-3-333-----3-|-2-223-1-----||




Darkthrone-The Watchtower

Intro
C#|---------||
G#|---------||
E |-|  3  |-||
B |---------||
F#|-6--4--5-|| Guitars 1&2
C#|-4--2--3-||

Riff 1
C#|-----------------|-----------------|-----------------|-----------------||
G#|-----------------|-----------------|-----------------|-----------------||
E |-----------------|---------|  3  |-|-----------------|---------|  3  |-||
B |-----------------|-----------------|-----------------|-----------------||
F#|-2-------------2-|-3-------6--4--5-|-2-------------2-|-3-------6--5--5-|| Guitar 1
C#|-0-------------0-|-1-------4--2--3-|-0-------------0-|-1-------4--2--3-||
  |               .                                   .                   |
C#|-----------------|-----------------|-----------------|-----------------||
G#|-----------------|-----------------|-----------------|-----------------||
E |-----------------|---------|  3  |-|-----------------|---------|  3  |-||
B |-----------------|-----------------|-----------------|-3---------------||
F#|-2-------------2-|-3-------6--4--5-|-2-------------2-|---------6--5--5-|| Guitar 2
C#|-0-------------0-|-1-------4--2--3-|-0-------------0-|-1-------4--2--3-||
                  .                                   .

Riff 2 (with solo)
C#|-----------------|-----------------|-----------------|-----------------||
G#|-----------------|-----------------|-----------------|-----------------||
E |-----------------|---------|  3  |-|-----------------|---------|  3  |-||
B |---------2---3---|-----------------|---------2---3---|-----------------||
F#|-2---------------|-3-------6--4--5-|-2---------------|-3-------6--4--5-|| Guitars 1&2
C#|-0---------------|-1-------4--2--3-|-0---------------|-1-------4--2--3-||
  |                                                                       |


C#|-12-========-\\--|-7-==============|=======-12-======|-17-========-----||
G#|-----------------|-----------------|-----------------|---------------12||
E |-----------------|-----------------|-----------------|-------------9---||
B |-----------------|-----------------|-----------------|-----------------||
F#|-----------------|-----------------|-----------------|-----------------|| Guitar 3
C#|-----------------|-----------------|-----------------|-----------------||

Riff 3   () = Guitar 3 from previous solo, only first time
C#|-----------------|-----------------||4x
G#|-----------------|-----------------||
E |(9======)--------|-----------------||
B |-----------------|-7/8-------------||
F#|---------5/6-----|-5/6-----7/8-----|| Guitars 1&2
C#|-0-0-0-0-3/4-----|---------5/6-----||
    . . . .

Cymbal Solo

Riff 3a
C#|-----------------|-----------------||4x
G#|-----------------|-----------------||
E |-----------------|-----------------||
B |-----------------|-----------------||
F#|-----------------|-5---6-----------|| Guitars 1&2
C#|-0-------3---4---|---------5---6---||
    ,       ,   ,     ,   ,   ,   ,

Riff 4   [Guitar 1 comes in 2nd time]
C#|-----------------|-----------------||6x
G#|-----------------|-----------------||
E |-----------------|-----------------||
B |-----------------|-----------------||
F#|-------------5---|-------------6---|| Guitars 1&2
C#|-0-------3-------|-6-------5-------||
    ,       ,   ,     ,       ,   ,

Riff 5
C#|-----------------|-----------------||4x
G#|-----------------|-----------------||
E |-----------------|-----------------||
B |-----------------|-----------------||
F#|-3---------------|-4---------------|| Guitars 1&2
C#|-------------3---|-----------------||
    ,           ,     ,

Riff 5a
C#|-----------------|-----------------||4x
G#|-----------------|-----------------||
E |-----------------|-----------------||
B |-----------------|-----------------||
F#|-----------------|-3---------------|| Guitars 1&2
C#|-5-------1-------|---------4-------||
     ,       ,           ,       ,

Lead Into Next Section
C#|-----------------||
G#|-----------------||
E |-----------------||
B |---r--(drums)----||
F#|-7---------------|| Guitars 1&2
C#|-5---------------||

Riff 6
C#|-------------|-------------|-------------|-------------|
G#|-------------|-------------|-------------|-------------|
E |-------------|-------------|-------------|-------------|
B |-------------|-------------|-------4-----|-4-----4---5-|
F#|-------------|-------------|-------2-----|-2-----2---3-|
C#|-222222222222|-333333000000|-11111---111-|---111-------|
    ............  ............  .....   ...     ...
C#|-------------|-------------|-------------|-------------|
G#|-------------|-------------|-------------|-------------|
E |-------------|-------------|-------------|-------------|
B |-------------|-------------|-------4-----|-4-----4---5-|
F#|-------------|-------------|-------2-----|-2-----2---3-|
C#|-222222222222|-333333000000|-11111---111-|---111-------|
    ............  ............  .....   ...     ...
C#|-------------|-------------|-------------|-------------|
G#|-------------|-------------|-------------|-------------|
E |-------------|-------------|-------------|-------------|
B |-------------|-------------|-------------|-------------|
F#|-------------|-------------|-------------|-------------|
C#|-222222222222|-333333000000|-111111111111|-000000111111|
    ............  ............  ............  ............
C#|-------------|-------------|-------------|-------------||
G#|-------------|-------------|-------------|-------------||
E |-------------|-------------|-------------|-------------||
B |-------------|-------------|-------------|-------------||
F#|-------------|-------------|-------------|-2-----3-----|| Guitars 1&2
C#|-222222222222|-333333000000|-111111111111|-0-----1-----||
    ............  ............  ............

Riff 7
C#|-----------------|-----------------||
G#|-----------------|-----------------||
E |-----------------|-----------------||
B |-----------------|-----------------||
F#|-----------------|-3-------2-------|| Guitar 1
C#|-0-------1---4---|-----------------||
  | ,       ,   ,     ,       ,       |
C#|-----------------|-----------------||
G#|-----------------|-----------------||
E |-----------------|-----------------||
B |-----------------|-----------------||
F#|-2---r-----------|-3-------2-------|| Guitar 2
C#|-0---------------|-----------------||
                      ,       ,

Riff 7a
C#|-----------------|-----------------||2x
G#|-----------------|-----------------||
E |-----------------|-----------------||
B |-----------------|-----------------||
F#|-----------------|-3-------2-------|| Guitars 1&2
C#|-0-------1---4---|-----------------||
    ,       ,   ,     ,       ,

Riff 7b
C#|-----------------|-------------||
G#|-----------------|-------------||
E |-----------------|-------------||
B |-----------------|-------------||
F#|-----------------|-3-------2---|| Guitars 1&2
C#|-0-------1---4---|-------------||
    ,       ,   ,     ,       ,

Riff 8
C#|-----------------|----|-----------------|----||
G#|-----------------|-2x-|-----------------|-2x-||
E |-----------------|----|-----------------|----||
B |-----------------|----|-----------------|----||
F#|-3-2-----3-2-----|----|-3-2-----4-3-----|----|| Guitars 1&2
C#|-----3-------4---|----|-----3-------4---|----||

Riff 8a   () = Guitar 2, 2nd time
C#|-------------|-------------||3x
G#|-------------|-------------||
E |-------------|-------------||
B |-------------|-------------||
F#|-3---2-------|-4---3--(6)--|| Guitars 1&2
C#|---------3---|---------4---||

Riff 9
C#|-----------------|-----------------|-----------------|-----------------||2x
G#|-----------------|-----------------|-----------------|-----------------||
E |-----------------|-----------------|-----------------|-----------------||
B |-----------------|-----------------|-----------------|-----------------||
F#|-----------------|-------------8---|-----------------|-----------------|| Guitars 1&2
C#|-0---7---8---6---|-0---7---8-------|-0---7---8---7---|-6---1---2---1---||

Riff 9a
C#|-----------------|-----------------|-----------------|-----------------||
G#|-----------------|-----------------|-----------------|-----------------||
E |-----------------|-----------------|-----------------|-----------------||
B |-----------------|-----------------|-----------------|-----------------||
F#|-----------------|-------------8---|-----------------|-----------------|| Guitar 1
C#|-0---7---8---6---|-0---7---8-------|-0---7---8---7---|-6---1---2---1---||
  |                                                                       |
C#|-----------------|-----------------|-----------------|-----------------||
G#|-----------------|-----------------|-----------------|-----------------||
E |-----------------|-----------------|-----------------|-----------------||
B |-----------------|-----------------|-----------------|-----------------||
F#|-----------------|-------------8---|-----------------|-----3---4---3---|| Guitar 2
C#|-0---7---8---6---|-0---7---8-------|-0---7---8---7---|-6---1---2---1---||

Play Riff 1
Play Riff 2

Bass Solo
C#|-------------|-------------||
G#|-------------|-------------||
E |-------------|-------------||
B |---r---------|-------------||
F#|-2-----------|-------------|| Guitars 1&2
C#|-0-----------|-------------||

Lead Into Next Section
C#|-------------|-------------||
G#|-------------|-------------||
E |-------------|---109-------||
B |---109---109-|-------8-----||
F#|-7-----7-----|-7-----------|| Guitar 2
C#|-------------|-------------||

Riff 10
C#|-------------|-------------||
G#|-------------|-------------||
E |-------------|---109-------||
B |---109---109-|-------------||
F#|-7-----7-----|-7-----8-----|| Guitar 1
C#|-------------|-------------||
  |                           |
C#|-------------|-------------||
G#|-------------|-------------||
E |-------------|-------------||
B |-----9-----9-|---109-------||
F#|-7-10--7-10--|-7-----8-----|| Guitar 2
C#|-------------|-------------||

Riff 10a
C#|-------------|-------------||2x
G#|-------------|-------------||
E |-------------|---8-7-------||
B |---8-7---8-7-|-------6-----||
F#|-5-----5-----|-5-----------|| Guitar 1
C#|-------------|-------------||
  |                           |
C#|-------------|-------------||2x
G#|-------------|-------------||
E |-------------|-------------||
B |-----7-----7-|---8-7---8-7-||
F#|-5-8---5-8---|-5-----6-----|| Guitar 2
C#|-------------|-------------||

Play Riff 10 - 2x
Play Riff 10a - 2x
Play Riff 6
Play Riff 7
Play Riff 7a - 2x
Play Riff 7b

Riff 9b
C#|-----------------|-----------------|-----------------|-----------------||3x
G#|-----------------|-----------------|-----------------|-----------------||
E |-----------------|-----------------|-----------------|-----------------||
B |-----------------|-----------------|-----------------|-----------------||
F#|-----------------|-------------8---|-----------------|-----------------|| Guitars 1&2
C#|-0---7---8---6---|-0---7---8-------|-0---7---8---7---|-6---1---2---1---||
    ,   ,   ,   ,     ,   ,   ,   ,     ,   ,   ,   ,     ,   ,   ,   ,

Riff 9c
C#|-----------------|-----------------|-----------------|-----------------||
G#|-----------------|-----------------|-----------------|-----------------||
E |-----------------|-----------------|-----------------|-----------------||
B |-----------------|-----------------|-----------------|-----------------||
F#|-----------------|-------------8---|-----------------|-----------------|| Guitar 1
C#|-0---7---8---6---|-0---7---8-------|-0---7---8---7---|-6---1---2---1---||
  | ,   ,   ,   ,     ,   ,   ,   ,     ,   ,   ,   ,     ,   ,   ,   ,   |
C#|-----------------|-----------------|-----------------|-----------------||
G#|-----------------|-----------------|-----------------|-----------------||
E |-----------------|-----------------|-----------------|-----------------||
B |-----------------|-----------------|-----------------|-----------------||
F#|-----------------|-------------8---|-----------------|-----3---4---3---|| Guitar 2
C#|-0---7---8---6---|-0---7---8-------|-0---7---8---7---|-6---1---2---1---||
    ,   ,   ,   ,     ,   ,   ,   ,     ,   ,   ,   ,     ,

End
C#|-----------------|-----------------|-----------------|-----------------||
G#|-----------------|-----------------|-----------------|-----------------||
E |-----------------|-----------------|-----------------|-----------------||
B |-----------------|-----------------|-----------------|-----------------||
F#|-2222222222222222|-2222222222222222|-22222222-=======|-===========-2---|| Guitars 1&2
C#|-0000000000000000|-0000000000000000|-00000000-=======|-===========-0---||




Darkthrone-Eon

Intro 1                                    Intro 2
C#|-------------|-------------||3x        |-----------------|-----------------||
G#|-------------|-------------||          |-----------------|-----------------||
E |-------------|-------------||          |-----------------|-----------------||
B |---r---------|-------------||          |-----------------|-----------------||
F#|-2-----------|-------------|| Guitar 1 |-5---5---5---5---|-6---6---6-------|| Guitar 1
C#|-0-----------|-------------||          |-3---3---3---3---|-4---4---4-------||
  |                           |           |     .   .   .     .   .           |
C#|-------------|-------------||3x        |-----------------|-----------------||
G#|-------------|-------------||          |-----------------|-----------------||
E |-------------|-------------||          |-----------------|-----------------||
B |-------------|-------------||          |-----------------|-----------------||
F#|-2-------3---|-2---3h4-----|| Guitar 1 |-5---5---5---5---|-6---6---6-------|| Guitar 2
C#|-0-----------|-------------||          |-3---3---3---3---|-4---4---4-------||
                                                .   .   .     .    .

Riff 1   () = Guitar 2
C#|-------------|-------------|-------------|-------------|
G#|-------------|-------------|-------------|-------------|
E |-------------|-------------|--------(5)--|(4)-(6)------|
B |-------------|-------------|-------------|-------------|
F#|-2-------3---|-2---4-------|-2-------3---|-2---4-------|
C#|-0-----------|-------------|-0-----------|-------------|

C#|-------------|-------------|-----------------|-----------------||
G#|-------------|-------------|-----------------|-----------------||
E |-------------|-------------|-----------------|-----------------||
B |-------------|-------------|-----------------|-----------------||
F#|-2-------3---|-2---4-------|-5---5---5---5---|-6---6---6-------|| Guitars 1&2
C#|-0-----------|-------------|-3---3---3---3---|-4---4---4-------||
                                    .   .   .     .   .

Riff 1a   () = Guitar 2
C#|-------------|-------------|-------------|-------------|
G#|-------------|-------------|-------------|-------------|
E |-------------|-------------|--------(5)--|(4)-(6)------|
B |---------5---|-4---6-------|---------5---|-4---6-------|
F#|-2------(3)--|(2)-(4)------|-2-----------|-------------|
C#|-0-----------|-------------|-0-----------|-------------|

C#|-------------|-------------|-----------------|-----------------||
G#|-------------|-------------|-----------------|-----------------||
E |-------------|-------------|-----------------|-----------------||
B |---------5---|-4---6-------|-----------------|-----------------||
F#|-2------(3)--|(2)-(4)------|-5---5---5---5---|-6---6---6-------|| Guitars 1&2
C#|-0-----------|-------------|-3---3---3---3---|-4---4---4-------||
                                    .   .   .     .   .

Riff 1b
C#|-----------------|-----------------||2x
G#|-----------------|-----------------||
E |-----------------|-----------------||
B |-----------------|-----------------||
F#|-2-------3---2-==|====-4---5---5---|| Guitars 1&2
C#|-0---------------|---------3---3---||
                              .   .

Riff 1c
C#|-----------------|-----------------|-----------------|-----------------||
G#|-----------------|-----------------|-----------------|-----------------||
E |-----------------|-----------------|-----------------|-----------------||
B |-----------------|-----------------|-----------------|-----------------||
F#|-2-------3---2-==|====-4---6---6---|-5---5---5---5---|-6---6---6----\\-|| Guitars 1&2
C#|-0---------------|---------4---4---|-3---3---3---3---|-4---4---4----\\-||
                              .   .         .   .   .     .   .

Riff 2
C#|-------------|-------------|-------------|-------------||2x
G#|-------------|-------------|-------------|-------------||
E |-------------|-------------|-------------|-------------||
B |-------------|-------------|-------------|-------------||
F#|-2-----2-----|-2-----2-----|-3-----3-----|-7-----5-----|| Guitars 1&2
C#|-0-00000-0000|-0-00000-0000|-1-11111-1111|-5-55553-3333||
      ....  ....    ....  ....    ....  ....    ....  ....

Riff 3
C#|-------------|-------------|-------------|-------------||2x
G#|-------------|-------------|-------------|-------------||
E |-------------|-------------|-------------|-------------||
B |-------------|-------------|-------------|-------------||
F#|-4-----4-----|-444444333333|-5-----5-----|-555555444444|| Guitars 1&2
C#|-2-22222-2222|-------------|-3-33333-3333|-------------||
      ....  ....                  ....  ....

Play Riff 2 - 2x
Play Riff 3 - 2x

Lead Into Next Section   () = Guitar 2
C#|-------------|-------------||
G#|-------------|-------------||
E |-------------|-------------||
B |--(6-5)-(7-6)|--(6-5)-(7-6)||
F#|(4)4-3(5)5-4-|(4)4-3(5)5-4-|| Guitars 1&2
C#|-2-----3-----|-2-----3-----||

Riff 4              |1., 2.           |3.               |
C#|-----------------|-----------------|-----------------||
G#|-----------------|-----------------|-----------------||
E |-----------------|-----------------|-----------------||
B |-------------3---|---------2-------|-2---------------||
F#|-2-------5-4-1---|-3-------0-------|-0-------3-------|| Guitars 1&2
C#|-0-------3-2-----|-1---------------|---------1-------||

Riff 4a             |1., 2.           |3.               |
C#|-----------------|-----------------|-----------------||
G#|-----------------|-----------------|-----------------||
E |-----------------|-----------------|-----------------||
B |-----------------|-----------------|-----------------||
F#|-------------1---|---------0-------|-0---------------|| Guitars 1&2
C#|-0-------3-2-----|-1---------------|---------1-------||
    ,       , , ,     ,       ,         ,       ,

Riff 5
C#|-------------|-------------|-------------|-------------||3x
G#|-------------|-------------|-------------|-------------||
E |-------------|-------------|-------------|-------------||
B |-------------|-------------|-------------|-------------||
F#|-------------|-------------|-------------|-333333------|| Guitars 1&2
C#|-333333333333|-222222222222|-555555555555|-------444444||
    ............  ............  ............  ............

Riff 5a
C#|-------------|-------------|-------------|-------------||
G#|-------------|-------------|-------------|-------------||
E |-------------|-------------|-------------|-------------||
B |-------------|-------------|-------------|-------------||
F#|-------------|-------------|-------------|-333333------|| Guitar 1
C#|-333333333333|-222222222222|-555555555555|-------444444||
  | ............  ............  ............  ............|
C#|-------------|-------------|-------------|-------------||
G#|-------------|-------------|-------------|-------------||
E |-------------|-------------|-------------|-------------||
B |-------------|-------------|-------------|-------------||
F#|-------------|-------------|-------------|-3-3-3-a-a-a-|| Guitar 2
C#|-333333333333|-222222222222|-555555555555|-------4-4-4-||
    ............  ............  ............

Riff 6
C#|-------------|-------------|-------------|-------------||2x
G#|-------------|-------------|-------------|-------------||
E |-------------|-------------|-------------|-------------||
B |-------------|-------------|-------------|-------------||
F#|-5-----4-----|-3-----3-----|-5-----9-----|-8-----8-----|| Guitars 1&2
C#|-3-33332-2222|-1-11111-1111|-3-33337-7777|-6-66666-6666||
      ....  ....    ....  ....    ....  ....    ....  ....

Riff 6a
C#|-------------|-------------|-------------|-------------|
G#|-------------|-------------|-------------|-------------|
E |-------------|-------------|-------------|-------------|
B |-------------|-------------|-------------|-------------|
F#|-5-----4-----|-3-----3-----|-4-----3-----|-2-----2-----|
C#|-3-33332-2222|-1-11111-1111|-2-22221-1111|-0-00000-0000|
      ....  ....    ....  ....    ....  ....    ....  ....
C#|-------------|-------------|-------------|-------------||
G#|-------------|-------------|-------------|-------------||
E |-------------|-------------|-------------|-------------||
B |-------------|-------------|-------------|-------------||
F#|-5-----4-----|-3-----3-----|-4-----3-----|-2-----------|| Guitars 1&2
C#|-3-33332-2222|-1-11111-1111|-2-22221-111-|-0-----------||
      ....  ....    ....  ....    ....  ...

Riff 7   () = Guitar 2
C#|-----------------|-----------------|-----------------|-----------------|
G#|-----------------|-----------------|-----------------|-----------------|
E |-----------------|-----------------|-----------------|-----------------|
B |---------4-------|-----------------|---------4-------|-----------------|
F#|-2-222-2-2-------|-----------------|-2-222-2-2-------|(3-4-3)-(2-3-2)--|
C#|-0-000-0---------|-3-4-3---2-3-2---|-0-000-0---------|-3-4-3---2-3-2---|
    . ... .                             . ... .
C#|-----------------|-----------------|-----------------|-----------------||
G#|-----------------|-----------------|-----------------|-----------------||
E |-----------------|-----------------|-----------------|-----------------||
B |---------4-------|-----------------|---------4-------|-----------------||
F#|-2-222-2-2-------|(1-2-1)-(0-1-0)--|-2-222-2-2-------|(5-6-5)-(4-5-4)--|| Guitars 1&2
C#|-0-000-0---------|-3-4-3---2-3-2---|-0-000-0---------|-3-4-3---2-3-2---||
    . ... .                             . ... .

Riff 8
C#|-------------|-------------|-------------|-------------||4x
G#|-------------|-------------|-------------|-------------||
E |-------------|-------------|-------------|-------------||
B |-------------|-------------|-------------|-------------||
F#|-2-----------|-4-----3-----|-2-----2-----|-2-----4-4-4-|| Guitars 1&2
C#|-0-----0-0-0-|---5-5---4-4-|---3-3---3-3-|-3-----2-2-2-||
          . . .   . . . . . .   . . . . . .         . . .

Riff 9
C#|-----------------|-----------------||2x
G#|-----------------|-----------------||
E |-----------------|-----------------||
B |-----------------|-----------------||
F#|-4---------5-4-3-|-5---------5-4-3-|| Guitars 1&2
C#|-2---2-2-2-------|-3---3-3-3-------||
        . . .             . . .

Riff 10
C#|-----------------|-----------------||2x
G#|-----------------|-----------------||
E |-----------------|-----------------||
B |-----------5-4-3-|-----------------||
F#|-2---------------|-4---------4-3-2-|| Guitars 1&2
C#|-0---0-0-0-------|-2---2-2-2-------||
        . . .             . . .

Play Riff 9 - 2x
Play Riff 10 - 2x

End
C#|-----------------||
G#|-----------------||
E |-----------------||
B |-----------------||
F#|-2-==============|| Guitars 1&2
C#|-0-==============||
Related for Soulside Journey tab