Song name
# A B C D E F G H I J K L M N O P Q R S T U V W X Y Z

Darkthrone - Where Cold Winds Blow tab

#----------------------------------PLEASE NOTE-------------------------------------------------#
#This file is the author's own work and represents their interpretation of the #
#song. You may only use this file for private study, scholarship, or research#
#-----------------------------------------------------------------------------------------------------------#

    Band:  Darkthrone 
    Album: A Blaze in the Northern Sky
    Song:  Where Cold Winds Blow      
    Copyright (c) Peaceville Records
    Version 1.0 - 27/10/2007
    Transcribed By: Elathen
    Email:            ningalia87@yahoo.com


.  - palm mute           /  - slide up to
\  - slide down to       ~  - vibrato
h  - hammer on           b  - Bend
p  - pull off            Suffixes for bend
t  - tap                 f  - full bend    h - half bend
ph - pinched harmonic    q  - quarter bend t - tap bend
*  - see comment         ^  - Hold bend    r release bend
x  - Stuccatto           ~  - vibrato bend
,  - slight palm mute    () - ghost note, sustained note
"  - tremolo note        <> - Trill

Tuning E A D G B E

Riff 1
|---------------------------------------------------------------------------------------
|---------------------------------------------------------------------------------------
|---------------------------------------------------------------------------------------
|--------0"--1"----0"------0"---1"---0"--------2"---3"---2"--------2"--3"---2"----------- 
|---1"-----------------1"---------------2"-------------------2--------------------------
|---------------------------------------------------------------------------------------

----------------------------------------------------------|
----------------------------------------------------------| 
----------------------------------------------------------| 
----------------------------------------------------------|  
--------2"----3"----2"----------2"----3"----2"------------|
---2"---------------------2"------------------------------|

Riff 1b
|----------------------------------------------------------------|
|----------------------------------------------------------------| 
|-------------1"------------------------"1-----------------------| 
|--0"--------------1"--------0"---------------1"-----------------|  
|------2"--------------------------2"----------------------------|
|----------------------------------------------------------------|

Riff 2
|--------------------------------------------------------------------------|
|--------------------------------------------------------------------------| 
|--------------------------------------------------------------------------| 
|-------------------0"------------------------------0"---------------------|  
|--2"-----4"--------2"-----4"------2"----4"---------2"----4"---------------|
|--0"-----2"---------------2"------0"----2"---------------2"---------------|

Play riff 1
Play riff 1b

Break riff
|----------------------------------------------------------------------------|
|----------------------------------------------------------------------------| 
|----------------------------------------------------------------------------| 
|----5-----8------7------5------8--------3-----6------5-----3----6-----------|  
|----5-----5------5------5------5--------3-----3------3-----3----3-----------|
|----------------------------------------------------------------------------|

Riff 3
|-------------------------------------------------------------|
|-------------------------------------------------------------| 
|-------------------------------------------------------------| 
|---4------5------3------4------4-----5-----3----4------------|  
|---4------4------3------3------4-----4-----3----3------------|
|-------------------------------------------------------------|

Play riff 2
Play riff 1
Play riff 1b

Riff 4
|-----------------------------------------------------------|
|-----------------------------------------------------------| 
|-----------------------------------------------------------| 
|---2"----1"-----0"------2"-----1"-----0"-------------------|  
|---0"----2"-----1"------0"-----2"-----1"-------------------|
|-----------------------------------------------------------|

Outro
|---------------------------------------------|
|---------------------------------------------| 
|---------------------------------------------| 
|---------------------------------------------|  
|----7------3-------7--------6----------------|
|----5------1-------5--------4----------------|
Tap to rate this tab
# A B C D E F G H I J K L M N O P Q R S T U V W X Y Z