Song name
# A B C D E F G H I J K L M N O P Q R S T U V W X Y Z

Darkwell - Two Soul Creature Part 1 The Beginning tab

AUTOR/ARTIST: DARKWELL
TITLE/TWO SOUL CREATURE 1 THE BEGINNING
ALBUM/ SUSPERIA
TRANSCRIBED BY/ FRANKLIN FRATAN CARDONA
E MAIL: FRATAN66@HOTMAIL.COM

TUNE TO "D"
RIFF/1 REPEAT 4 (TIMES)
|---------------------------------------------|E
|---------------------------------------------|B
|---------------------------------------------|G
|-----------3---3-----------5-3-5-------------|D
|-2-2-2-2-O-3-2-3-2-2-2-2-0-5-3-5-------------|A
|-0-0-0-0-0-1-0-1-0-0-0-0-0-3-1-3-------------|E

RIFF/2 REPEAT 4 (TIMES)
|-----------------------------------------------|E
|-----------------------------------------------|B
|-----------------------------------------------|G
|-----2-----2-----2-----------------------------|D
|-2-2-2-2-2-2-2-2-2-----------------------------|A
|-0-0-0-0-0-0-0-0-0-5-5-5-5-3-3-3-3-0-2-3-2-3-0-|E


KEYBOARDS/

REPEAT / RIFF 2 4 (TIMES)

RIFF/3
|-------------------------------------------------|E
|-------------------------------------------------|B
|-------------------------------------------------|G
|-----2---5-5-4-5-4-5-----------------------------|D
|-2-2-0-2-5-5-4-5-4-5-----------------------------|A
|-0-0-0-0-3-3-2-3-2-3-----------------------------|E

RIFF/4  2 (TIMES)
|--------------------------------------------------|E
|--------------------------------------------------|B
|-7-7---5------------------------------------------|G
|-7-7---5---7-7---5--------------------------------|D
|-5-5---3---7-7---5--------------------------------|A
|-----------5-5---3--------------------------------|E
 REPEAT RIFF/2

REPEAT RIFF /2
  
REPEAT RIFF 4 
REPEAT RIFF 1
REPEAT RIFF 2
REPEAT RIFF 2
Tap to rate this tab
 
# A B C D E F G H I J K L M N O P Q R S T U V W X Y Z