Song name
# A B C D E F G H I J K L M N O P Q R S T U V W X Y Z

Darlene Zschech - Evermore tab

Help us improve GuitareTab! Take a short survey!
-------------------------------------------------------------------------------
			 EVERMORE - Michael Schenker Group
-------------------------------------------------------------------------------
MSG
Evermore
from: Arachophobiac (2003)

Tabbed by:malpka
Email:sfaurot@hotmail.com

Tuning: Standard

INTRO:
Acoustic & Bass
[FIG: 1]   let ring...
e|--------------------------------|--------------------------------|
B|------------0--------------0----|------------0--------------0----|
G|------0--------------0----------|------0--------------0----------|
D|--0h2---0-4---4--0h2---0-4---4--|--0h2---0-4---4--0h2---0-4---4--|
A|--------------------------------|--------------------------------|
E|--------------------------------|--------------------------------|


odd time:
[FIG: 2]
e|------------------|------------------|------------------|------------------|
B|--9-x-9-x-9-------|--9-x-9-x-9-------|--9-x-9-x-9-------|--9-x-9-x-9-------|
G|--9-x-9-x-9-------|--9-x-9-x-9-------|--9-x-9-x-9-------|--9-x-9-x-9-------|
D|--9-x-9-x-9-------|--9-x-9-x-9-------|--9-x-9-x-9-------|--9-x-9-x-9-------|
A|--7-x-7-x-7-------|--7-x-7-x-7-------|--7-x-7-x-7-------|--7-x-7-x-7-------|
E|------------0-0-0-|-------------0-0--|-------------0-0--|------------0-0-0-|


VERSE A 1:
[FIG: 3]
  Been a ten-fold fury  grindin', bustin', tryin' ta
e|------------------------|------------------------|
B|-----x-9--x-------------|-----x-9--x-------------|
G|--9--x-9--x-9-----------|--9--x-9--x-9-----------|
D|--9--x-9--x-9-----------|--9--x-9--x-9-----------|
A|--7--x----x-7-----------|--7--x----x-7-----------|
E|---------------0-0-0-0--|---------------0-0-0-0--|

  make my life
e|------------------------|------------------------|
B|-----x-9--x-------------|-----x-9--x-------------|
G|--9--x-9--x-9-----------|--9--x-9--x-9-----------|
D|--9--x-9--x-9-----------|--9--x-9--x-9-----------|
A|--7--x----x-7-----------|--7--x----x-7-----------|
E|---------------0-0-0-0--|---------------0-0-0-0--|

  Yeah the law it keep a comin' the piper always takes
e|------------------------|------------------------|
B|-----x-9--x-------------|-----x-9--x-------------|
G|--9--x-9--x-9-----------|--9--x-9--x-9-----------|
D|--9--x-9--x-9-----------|--9--x-9--x-9-----------|
A|--7--x----x-7-----------|--7--x----x-7-----------|
E|---------------0-0-0-0--|---------------0-0-0-0--|

  his cut twice   
e|------------------------|------------------------|
B|-----x-9--x-------------|-----x-9--x-------------|
G|--9--x-9--x-9-----------|--9--x-9--x-9-----------|
D|--9--x-9--x-9-----------|--9--x-9--x-9-----------|
A|--7--x----x-7-----------|--7--x----x-7-----------|
E|---------------0-0-0-0--|---------------0-0-0-0--|


VERSE B 1:
[FIG: 4]
  And I know... there's a hard knock a-shakin' down my door, gotta break and
e|----------------|----------------|----------------|----------------|
B|----------------|----------------|----------------|----------------|
G|-----2---0-2----|-----2---0-2----|-----2---0-2----|-----2----0-2---|
D|---2------------|---2------------|---2------------|---2------------|
A|-0-----0-----3~-|-0-----0-----3~-|-0-----0-----3~-|-0-----0-----3~-|
E|----------------|----------------|----------------|----------------|

   cut loose
e|------------------------|------------------------|
B|-----x-9--x-------------|-----x-9--x-------------|
G|--9--x-9--x-9-----------|--9--x-9--x-9-----------|
D|--9--x-9--x-9-----------|--9--x-9--x-9-----------|
A|--7--x----x-7-----------|--7--x----x-7-----------|
E|---------------0-0-0-0--|---------------0-0-0-0--|

e|------------------------|------------------------|
B|-----x-9--x-------------|-----x-9--x-------------|
G|--9--x-9--x-9-----------|--9--x-9--x-9-----------|
D|--9--x-9--x-9-----------|--9--x-9--x-9-----------|
A|--7--x----x-7-----------|--7--x----x-7-----------|
E|---------------0-0-0-0--|---------------0-0-0-0--|


PRE-CHORUS 1:
[FIG: 5]
   In the end this game is mine ain't gonna let it slip away
e|----------------|----------------|----------------|----------------|
B|----------------|----------------|----------------|----------------|
G|--5-------------|--4-------------|--7-------------|--7.------------|
D|--5-------------|--5-------------|--7-------------|--7.------------|
A|--3-------------|--2-------------|--5-------------|--5.------------|
E|----------------|----------------|----------------|----------------|


CHORUS 1:
[FIG: 6]
 and Evermore gonna live the life I been fightin' for One more day
e|--------------------------------|------------------------------|
B|--------------------------------|------------------------------|
G|--9-7-9\---------12------14~----|--9-7-9\----------------------|
D|--9-7-9\---------12------14~----|--9-7-9\---------5------7~--7-|
A|--7-5-7\---------10------12~----|--7-5-7\---------5------7~--7-|
E|----------0-0-0------0-0------0-|----------0-0-0--3--x-x-5~--5-|

 and Evermore gonna reach the sun  Been a hard road comin' my way
e|--------------------------------|------------------------------|
B|--------------------------------|------------------------------|
G|--9-7-9\---------12------14~----|------------------------2~----|
D|--9-7-9\---------12------14~----|-----2----0-------------2~----|
A|--7-5-7\---------10------12~----|-(0)---3----2--3-0------0~----|
E|----------0-0-0------0-0------0-|--------------------3b--------|


VERSE A 2:
[FIG: 3]
Just a long-haired hustler
Finger, drifter
Boy your brand ain't right

And if you think I'm only frontin'
I tell ya now
You better think twice

VERSE B 2:
[FIG 4:]
And I know
the way I'm makin' is paved
with broken dreams
But I know I can't lose

PRE-CHORUS 2:
[FIG: 5]
In the end this game is mine
Ain't gonna let it slip away

CHORUS 2:
[FIG: 6]
 and Evermore gonna live the life I been fightin' for One more day
e|--------------------------------|------------------------------|
B|--------------------------------|------------------------------|
G|--9-7-9\---------12------14~----|--9-7-9\----------------------|
D|--9-7-9\---------12------14~----|--9-7-9\---------5------7~--7-|
A|--7-5-7\---------10------12~----|--7-5-7\---------5------7~--7-|
E|----------0-0-0------0-0------0-|----------0-0-0--3--x-x-5~--5-|

 and Evermore gonna reach the sun  Been a hard road comin' my way
e|--------------------------------|------------------------------|
B|--------------------------------|------------------------------|
G|--9-7-9\---------12------14~----|------------------------2~----|
D|--9-7-9\---------12------14~----|-----2----0-------------2~----|
A|--7-5-7\---------10------12~----|-(0)---3----2--3-0------0~----|
E|----------0-0-0------0-0------0-|--------------------3b--------|


e|----------------|
B|-3-------3------|
G|-0-------2------|
D|-0-------0------|
A|-x-------0------|
E|-3--------------|



SOLO RHYTHM:
[FIG: 7]
e|--------------------------------|--------------------------------|
B|--------------------------------|--------------------------------|
G|-----------------5~-------7~----|-----------------5~-------7~----|
D|--7-5-7----------5~-------7~----|--7-5-7----------5~-------7~----|
A|--7-5-7----------3~-------5~----|--7-5-7----------3~-------5~----|
E|--5-3-5---0-0-0-------0-0-------|--5-3-5---0-0-0-------0-0-------|

e|--------------------------------|--------------------------------|
B|--------------------------------|--------------------------------|
G|-----------------5~-------7~----|-----------------5~-------7~----|
D|--7-5-7----------5~-------7~----|--7-5-7----------5~-------7~----|
A|--7-5-7----------3~-------5~----|--7-5-7----------3~-------5~----|
E|--5-3-5---0-0-0-------0-0-------|--5-3-5---0-0-0-------0-0-------|


[FIG: 1]
[FIG: 2]

VERSE A 3:
[FIG: 3]
It's all about the shuffle
Snuff your fire out
Before it's time

Yeah the way they got me runnin'
I been leavin'all my
Aces behind

VERSE B 3:
[FIG: 4]
Yeah I know
I'm makin' time
on a line that's runnun' thin
But I know I'll break through

PRE-CHORUS 3:
[FIG: 5]
In the end this game is mine
Ain't gonna let it slip away

CHORUS 3:
[FIG: 6]
And Evermore
Gonna live the life I been fightin' for
One more day
and Evermore
Gonna reach the sun
Been a hard road comin' my way




| /  slide up
| \  slide down
| h  hammer-on
| p  pull-off
| ~  vibrato
| +  harmonic
| x  Mute note
===============================================================================
Related for Evermore tab