Song name
# A B C D E F G H I J K L M N O P Q R S T U V W X Y Z

Darlene Zschech - One Way tab

Intro: octaves
------------------|
------------------|
-8----13---11--9--|
------------------|
-6----11---9---7--|
------------------|
B/D# G#m F# E

Chorus:
------------------|
------------5-----|
-4--3---4---4-----|
-4--4---4---2-----|
-2--2---2---------|
------------------|
B F# G#m E

Pre-verse 2:
------------------------|
------------------------|
------------------------|
-9-8b9r8b9r6-6-------9--|
------------6-9-6b7r6---|
------------------------|

------------------------|
------------------------|
-------------8b9r8b9r8--|
-8b9r8-9-8-6------------|
----------6-9-----------|
------------------------|

2nd guitar riff:
-----------11----12--11-----------|
---12--14----14----------14--12---|
-11--11--11----11--11--11--11-----|
----------------------------------|
----------------------------------|
----------------------------------|

Bridge: Bass Notes Of

B F# G#m E
G#m F# E E
Tap to rate this tab
 
# A B C D E F G H I J K L M N O P Q R S T U V W X Y Z