Song name
# A B C D E F G H I J K L M N O P Q R S T U V W X Y Z

Darlene Zschech - God Is Here tab

E---------------------------------------|
B-15---17----19----17-19-17----------15-|
G---------------------------16---14-----|
D---------------------------------------|
A---------------------------------------|
E---------------------------------------|
SO THAT WILL BE THE INTRO FOR THIS SONG

THE VERSE WILL BE: D G D A G EM

THE CHORUS WILL BE : D A BM D G BM A D A BM D D/F# BM G D

THEN GO BACK TO VERSE AND THE CHORUS AGAIN THEN THE SOLO PART

E----------------17---------------------|
B-19-17-19-17-19----19-17-19------------|
G----------------------------19-16------| SO KEEP REPEATING THIS WHILE THE OTHERS PLAY THE
D---------------------------------------| BRIDGE.THEN BACK TO THE CHORUS AND FROM THERE
A---------------------------------------| YOU SHOULD BE ABLE TO END IT.
E---------------------------------------|

HOPE THIS HELPS GOD BLESS :)
Tap to rate this tab
# A B C D E F G H I J K L M N O P Q R S T U V W X Y Z