Song name
# A B C D E F G H I J K L M N O P Q R S T U V W X Y Z

Darling Violetta - Benediction tab

Darling Violetta - Benediction
Tabbed By: Daniel Taylor
EMail: danielt88@hotmail.com


Intro:

e--9p7------9p7-----9p7-----9p7-----7p5-----7p5-----7p5-----7p5-----
B-------7--------7-------7-------7-------5-------5-------5-------5--
G-------------------------------------------------------------------
D-------------------------------------------------------------------
A-------------------------------------------------------------------
E-------------------------------------------------------------------

Verse:

e--------9-------9--7-----7--9-----
B------7---------------7-----------
G----7-----------------------------
D--0-------------------------------
Tap to rate this tab
 
# A B C D E F G H I J K L M N O P Q R S T U V W X Y Z