Song name
# A B C D E F G H I J K L M N O P Q R S T U V W X Y Z

Darling Violetta - Catharsis Of Sufferance tab

This is a really great song to play, sounds good on any instrment.
This is my first tab, looks good to me. A lot of the other tabs i
saw for this song used G-11 and 12 in the 2nd and 5th verse, i
changed these to B-7 and 8, it sounds the same and its quicker
to get to considering the rest of the song


    Em            D             G           D    C
e:-----------------------------------------------------------------|
B:-----------------------------------------------------------------|
G:----------------7---5--4--4--------------------------------------|
D:--2---4---5--/----------------7----5--5---4----2----4----5-------|
A:-------------------------------------------------------------3---|
E:-----------------------------------------------------------------|

     Em            D        G     D   C
e:----------------------------------------------------------|
B:---------------------------------7---8--------------------|
G:-----------------7--5--4--4--/------------5----5----5\4---|
D:---2---4---5--/-------------------------------------------|
A:----------------------------------------------------------|
E:----------------------------------------------------------|

     Em        C               Em        C
e:---------------------------------------------------|
B:---------------------------------------------------|
G:---------------------------------------------------|
D:-------4--2--4--2--4/5-----------4--2--4/5-/-7-/10-|
A:---2-------------------------2---------------------|
E:---------------------------------------------------|

     Em        D         G    D
e:-------------------------------------|
B:-------------------------------------|
G:----------------7--------------------|
D:---9--10--9--7-----10--9----7--5--4--|
A:-------------------------------------|
E:-------------------------------------|

     Em            D        G     D   C
e:----------------------------------------------------------|
B:---------------------------------7---8--------------------|
G:-----------------7--5--4--4--/------------5----5----5\4---|
D:---2---4---5--/-------------------------------------------|
A:----------------------------------------------------------|
E:----------------------------------------------------------|

(let these ring)

e:-----7------5------3------2----0--------------------------|
B:----------------------------------------------------------|
G:-----7------5------3------2----0--------------------------|
D:----------------------------------------------------------|
A:----------------------------------------------------------|
E:----------------------------------------------------------|

In the song this was played on the violin, and nothing beats
the original, but it sounds really good on both acoustic and
electric guitars too.

Made by Steve Hillier

Tap to rate this tab
 
# A B C D E F G H I J K L M N O P Q R S T U V W X Y Z