Song name
# A B C D E F G H I J K L M N O P Q R S T U V W X Y Z

Darondo - Didnt I tab

"Didn't I" by Darondo. Beautiful song. Version from Breaking Bad. This is my first tab 
so don't hate, just enjoy.


Intro
E----------------------------------------------------------------------------|
B----------------------------------------------------------------------------|
G----------------------------------------------------------------------------|
D---------------------3---3--------------------------------------------------|
A-3-5-5-5-3-5-3-5-------5---5-3--3-5-5---------------------------------------|
E----------------------------------------------------------------------------|

Verse/Chorus Etc.
E--6--5-5-5-5---3-3-3-3-3-3----6--5-5-5-5---3-3-3-3-3-3----------------------|
B--6--5-5-5-5---3-3-3-3-3-3----6--5-5-5-5---3-3-3-3-3-3----------------------|
G--7--5-5-5-5---3-3-3-3-3-3----7--5-5-5-5---3-3-3-3-3-3----------------------|
D--8--7-7-7-7---5-5-5-5-5-5----8--7-7-7-7---5-3-5-5-5-5----------------------|
A--8--7-7-7-7---5-5-5-5-5-5----8--7-7-7-7---5-5-5-5-5-5----------------------|
E6-6--5-5-5-5---3-3-3-3-3-3--6-6-5-5-5-5--3-3-3-3-3-3------------------------|

"Didn't I treat (Didn't I?) "Didn't I do the (Didn't I?)
 you right now?"             best I could?"
Tap to rate this tab
# A B C D E F G H I J K L M N O P Q R S T U V W X Y Z