Guitaretab - guitar tabs
Song name
# A B C D E F G H I J K L M N O P Q R S T U V W X Y Z

Darren Coggan - Emily Rose tab

Standard Tuning with Capo on the 3rd Fret (chords and tab relative to capo)


  D         Bm        G      D        G
e-0h2---0---0h2-0----------0-0h2---0---------------0-|
B----3-----------3-------3------3-----3h5-3----2-3---|
G-----2------------2-0--0--------2---------4--0------|
D-0----0---------------0-----0----0----------0----2--|
A--------4--2-----0-----------------4----------------|
E---------------------3---3-----------------3--------|
[ Tab from: http://www.guitaretab.com/d/darren-coggan/116846.html ]
  A        D             Bm        G      D         G            A
e-------0--0h2---0-----0-0h2-0----------0-0h2---0------------------------0--|
B----2s3------2-------3-------3-------3------2------3---3-----3------2-3----|
G---2----------3----2-----------2-0--0--------3-----2h4-2-0--0-0----2-------|
D--2-----2-0----0-------------------0-----0----0------------0---0--2----2---|
A-0---------------4------2-----0-----------------4----------------0---------|
E----------------------------------3---3------------3------3----------------|


Darren Coggan's Official website:  http://www.darrencoggan.com/
Advertisement will be closed in 10 seconds