Darren Criss - Those Voices tab

I'm proud to present my very first tab. Big thanks to Buka for corrections.
A Very Potter Sequel - "Those Voices" by Darren Criss

Play this part about 5 times:

E|--------------|
B|-6------------|
G|---7----------|
D|-----7-3-5~---|
A|--------------|
E|--------------|

Then it goes:

E|-------------------------------------------|
B|-3-3-0-------------------------------------|
G|--------0-2-3-2-0-2-3-0-2-3-2-0-2-3-0-0----|
D|----------------------------------------3--|
A|-------------------------------------------|
E|-------------------------------------------|

E|-------------------------------------------|
B|-3-3-0---------------------------------1---|
G|-------0-2-3-2-0-2-3-0-2-3-2-0-2-3-2-3-----|
D|-------------------------------------------|
A|-------------------------------------------|
E|-------------------------------------------|


E|--------------------------|------------|------------|
B|---3-3-2-5-5--6-----------|-6----------|-8-4-1------|
G|-2---------------7--------|---7--------|--------3-2-|
D|-------------------7-3-5~-|-----7-3-5~-|------------|
A|--------------------------|------------|------------|
E|--------------------------|------------|------------|

Then, while they're talking, you play something like this:

This 6 times 		This 1 time:		And this, several times:

E|-------------|		E|------------|		E|-----0------|
B|---0-3-0-----|		B|---0-3-0----|		B|---2----2---|
G|-0-----------|		G|-0----------|		G|-2----------|
D|-------------|		D|------------|		D|------------|
A|-------------|		A|------------|		A|------------|
E|-------------|		E|-3----------|		E|------------|

After that it goes like this:

E|-------------------------------------------|
B|-3-3-0-------------------------------------|
G|-------0-2-3-2-0-2-3-2-0-2-3-2-0-2-3-0-0---|
D|-----------------------------------------3-|
A|-------------------------------------------|
E|-------------------------------------------|

E|-------------------------------------------|
B|-3-3-0---------------------------------1---|
G|-------0-2-3-2-0-2-3-0-2-3-2-0-2-3-2-3-----|
D|-------------------------------------------|
A|-------------------------------------------|
E|-------------------------------------------|

E|--------------------------|------------|------------|
B|-----3-3-2-5-5-6----------|-6----------|-8-4-1------|
G|-2---------------7--------|---7--------|--------3-2-|
D|-------------------7-3-5~-|-----7-3-5~-|------------|
A|--------------------------|------------|------------|
E|--------------------------|------------|------------|

E|---------------------------------------|
B|-2-3-2-0-2-3-0-2-3-2-0-2-3---1-5-3-1---|
G|---------------------------2---------2-|
D|---------------------------------------|
A|---------------------------------------|
E|---------------------------------------|

E|------------------------------------------|
B|-3-3-3-2-0-2-3-5-5-5-5-3-2-3---1-5-3-1----|
G|-----------------------------2--------2---|
D|------------------------------------------|
A|------------------------------------------|
E|------------------------------------------|

E|------------------------|------------|-3--------------|
B|---3-3-10-8-8-3-5-6-8-3~|-6----------|---4-1----------|
G|-2----------------------|---7--------|-------3-2--4---|
D|------------------------|-----7-3-5~-|----------------|
A|------------------------|------------|----------------|
E|------------------------|------------|----------------|

And that's it. I hope you'll enjoy it.
Greetings for all Starkid fans!
Tap to rate this tab
 
# A B C D E F G H I J K L M N O P Q R S T U V W X Y Z