Song name
# A B C D E F G H I J K L M N O P Q R S T U V W X Y Z

Darren Criss - Dont You chords

Highlighted       Show chord diagrams
Don't You by Darren Criss - guitar

Note: To get that same sound he has from finger picking while just play the
chords, hammer on the 4th fret second string on the E and Esus4 chords. 
It's a bit hard to reach, especially if you have small hands like me so I
usually just leave it out.  

Intro: 
     E              Esus4           E                Esus4 
e | -----0---0----------0---0-----------0---0-----------0------ |
b | ---0---4---0------0---4---0-------0---4---0-------0---4---- |
g | -1--------------2---------------1---------------2---------- |
d | ----------------------------------------------------------- |
a | ------------------------------------------------------------|
E | ------------------------------------------------------------|


E    Esus4               E 
Say, wasn't that a funny day?
Esus4                 C#m       F#   F#7
Gee, you had a funny way a way about you.
           A               Am Asus2
A kind of glow of something new.
E    Esus4                   E 
Sure I'll admit that I'm the same.
Esus4                C#m               F# F#7
Another sucker for a game kids like to play,
        A (barre)          Am (barre) G#m7 Gm7
And the rules they like to use.

Chorus:
A                  Am
Don't you want the way I feel?
C#m                 F#
Don't you want the way I feel?
A                  Am             E 
Don't you want the way I feel for you?

     E              Esus4           E                Esus4 
e | -----0---0----------0---0-----------0---0-----------0------ |
b | ---0---4---0------0---4---0-------0---4---0-------0---4---- |
g | -1--------------2---------------1---------------2---------- |
d | ----------------------------------------------------------- |
a | ------------------------------------------------------------|
E | ------------------------------------------------------------|

E       Esus4                    E 
The sun: telling me the night is done.
Esus4                   C#m      F# F#7
Well I refuse to let it stop our fun.
           A                  Am   Asus2
Close your eyes—we'll make it dark again
  E     Esus4                           E 
A kiss; there's a thought, so how 'bout this?
Esus4                       C#m              F# F#7
Let's pretend that both our lips are made of candy.
      A (barre)                   Am (barre) G#m7 Gm7
After all, we need sweets every now and then.

Chorus:
A                  Am
Don't you want the way I feel?
C#m                 F#
Don't you want the way I feel?
A                  Am             E 
Don't you want the way I feel for you?

E E7

Bridge:
Bb7               D7            Dbm7            E7
Here we are: two strangers in a very different place.
Am                                E
Who knows what could happen to us next?
D                B7      G#m7            F#7
Here we are with nothing but this little spark.
         A       Asus2   Am               E     E7   
It's too cold outside to lay this fire to rest.

Verse:
E   Esus4       E 
Go? How so very apropos:
Esus4                     C#m     F# F#7
A goodbye just as soon as I said 'Hello."
        A                  Am Asus2
Well alright, I'll see you later.
     E     Esus4                   E
It's true: it's just a fantasy for two.
    Esus4                       C#m                 F# F#7
But what's the difference if it all could have been true?
A (barre)       Am (barre) G#m7 Gm7
I guess this is better.

Chorus:
A                  Am
Don't you want the way I feel?
C#m                 F#
Don't you want the way I feel?
A                  Am             E    
Don't you want the way I feel for you?

     E              Esus4            
e | -----0---0----------0---0-----|
b | ---0---4---0------0---4---0---|
g | -1--------------2-------------|
d | ------------------------------|
a | ------------------------------|
E | ------------------------------|

A                  Am
Don't you want the way I feel?
C#m                 F#
Don't you want the way I feel?
A                  Am             E    
Don't you want the way I feel for you?

Outro:
     E              Esus4           E                Esus4 
e | -----0---0----------0---0-----------0---0-----------0------ |
b | ---0---4---0------0---4---0-------0---4---0-------0---4---- |
g | -1--------------2---------------1---------------2---------- |
d | ----------------------------------------------------------- |
a | ------------------------------------------------------------|
E | ------------------------------------------------------------|
Tap to rate this tab
# A B C D E F G H I J K L M N O P Q R S T U V W X Y Z