Song name
# A B C D E F G H I J K L M N O P Q R S T U V W X Y Z

Darren Criss - Jealousy tab

Hi everyone! This is my third tab, however this is not my version. I just made it a tab 
from this link: http://www.youtube.com/watch?v=83dkLlxxtwk

You can use that to help with whatever doesn’t make sense here. Hope this helps! If you 
have any corrections or suggestions, please comment below.

Verse
                  E  E7  C#  F#      B  B7
e|----------------0---0---4---9------7---7--|
B|----------------0---3---4---9------7---7--|
G|----------------1---1---6--11------8---8--| x4
D|-----4-6-4------2---0---6--11------9---7--|
A|-4/6-------6-4--2---2---4---9------9---9--|
E|----------------0---0---4---9------7---7--|
  I hate where...              ...that
  I know that...                 ...on
  And I dont...                 ...you
  Id tear out...            ...me good

                  E     Eb      G#m  B
e|----------------0-----6--------4---7-|
B|----------------0-----6--------4---7-|
G|----------------1-----8--------4---8-|
D|----------------2-----8--------6---9-|
A|----------------2-----6--------6---9-|
E|----------------0-----6--------4---7-|
  Im sorry...  ...lovers...   ...mess

                  E  F#     Gdim     G#m   B
e|----------------0---9------9--------4----7--|
B|----------------0---9------8--------4----7--|
G|----------------1--11------9--------4----8--|
D|----------------2--11------8--------6----9--|
A|----------------2---9------X--------6----9--|
E|----------------0---9------X--------4----7--|
  I know...   ...other, but Im  in distress

                     E            Ebsus4 Eb   G#m                   C#
e|-------------------0--------------11----6----4--------------------4-|
B|-------------------0--------------11----6----4--------------------4-|
G|-------------------1--------------11----8----4--------------------6-|
D|-------------------2--------------13----8----6--------------------6-|
A|-------------------2--------------13----6----6--------------------4-|
E|-------------------0--------------11----6----4--------------------4-|
  Every time... ...I feel...  ...it out...    Cant  seem... ...it in

Chorus
                C#m7       D#m7        E          D#m7
e|---------------4---------6-----------0-----------6---|
B|---------------5---------7-----------0-----------7---|
G|---------------4---------6-----------1-----------6---|
D|---------------6---------8-----------2-----------8---|
A|---------------4---------6-----------2-----------6---|
E|---------------X---------X-----------0-----------X---|
   Its got... ...do with me... ...even you, you see

      F#          E                    G       F#
e|-----9----------0--------------------3-------9--|
B|-----9----------0--------------------3-------9--|
G|----11----------1--------------------0------11--|
D|----11----------2--------------------0------11--|
A|-----9----------2--------------------2-------9--|
E|-----9----------0--------------------3-------9--|
   Its part of my chemistry,  its this jealousy

Verse 2 (Palm mute)
                           E  E7  C#  F#            B  B7
e|-------------------------0---0---4---9------------7---7--|
B|-------------------------0---3---4---9------------7---7--|
G|-------------------------1---1---6--11------------8---8--| x4
D|-----4-6-4---------------2---0---6--11------------9---7--|
A|-4/6-------6-4-----------2---2---4---9------------9---9--|
E|-------------------------0---0---4---9------------7---7--|
  In absolutely no position...     needlessly unkind
  Cause Im...  This fiction...     real...   ...mind
  It drives me....  Morning...     Monster...     Mirror?
  Try to get...  Fog it out..      Get         clear

                  E     Eb      G#m   B
e|----------------0-----6--------4----7-|
B|----------------0-----6--------4----7-|
G|----------------1-----8--------4----8-|
D|----------------2-----8--------6----9-|
A|----------------2-----6--------6----9-|
E|----------------0-----6--------4----7-|
  Oh and I...    Feeling...  ... veins

                  E  F#     Gdim     G#m   B
e|----------------0---9------9--------4----7--|
B|----------------0---9------8--------4----7--|
G|----------------1--11------9--------4----8--|
D|----------------2--11------8--------6----9--|
A|----------------2---9------X--------6----9--|
E|----------------0---9------X--------4----7--|
  I know... ...but       ...know...  Im  saying

                     E            Ebsus4 Eb      G#m                   C#
e|-------------------0--------------11----6-------4--------------------4-|
B|-------------------0--------------11----6-------4--------------------4-|
G|-------------------1--------------11----8-------4--------------------6-|
D|-------------------2--------------13----8-------6--------------------6-|
A|-------------------2--------------13----6-------6--------------------4-|
E|-------------------0--------------11----6-------4--------------------4-|
  Cause every time...               Just    lighter            give out

Chorus
                C#m7       D#m7        E          D#m7
e|---------------4---------6-----------0-----------6---|
B|---------------5---------7-----------0-----------7---|
G|---------------4---------6-----------1-----------6---|
D|---------------6---------8-----------2-----------8---|
A|---------------4---------6-----------2-----------6---|
E|---------------X---------X-----------0-----------X---|
  Its  got... ...do with me... ...even you, you see

      F#          E                    G       F#
e|-----9----------0--------------------3-------9--|
B|-----9----------0--------------------3-------9--|
G|----11----------1--------------------0------11--|
D|----11----------2--------------------0------11--|
A|-----9----------2--------------------2-------9--|
E|-----9----------0--------------------3-------9--|
  Its  part of my chemistry, its  this jealousy

          A                 E             B B7 C# D# -E  F# G#  A#
e|--------0-----------------0-------------7--7--x--x--x---x--x---x-|
B|--------2-----------------0-------------7--7--x--x--x---x--x---x-|
G|--------2-----------------1-------------8--8--4--6--8---9-11- 13-|
D|--------2-----------------2-------------9--7--x--x--x---x--x---x-|
A|--------0-----------------2-------------9--9--2--4--6---7--9--11-|
E|--------0-----------------0-------------7--7--x--x--x---x--x---x-|
  And Im  hearing... ...you know... Maybe so...

          A             E                  F#
e|--------0-------------0-------------------7---------------|
B|--------2-------------0-------------------7---------------|
G|--------2-------------1-------------------8---------------|
D|--------2-------------2-------------------9---------------|
A|--------0-------------2-------------------9---------------|
E|--------0-------------0-------------------7---------------|
  And I know...  ...the only excuse that I know, know, know

         E  E7         B B7       E    E7               B B7
e|-------0---0---------7--7-------0-----0---------------7--7-|
B|-------0---3---------7--7-------0-----3---------------7--7-|
G|-------1---1---------8--8-------1-----1---------------8--8-|
D|-------2---0---------9--7-------2-----0---------------9--7-|
A|-------2---2---------9--9-------2-----2---------------9--9-|
E|-------0---0---------7--7-------0-----0---------------7--7-|
  Let me go,   let me go, oh let me go, ooooh, let me go

                       E               E7              B   B7
e|---------------------0----------------0--------------7---7--|
B|---------------------0----------------3--------------7---7--|
G|---------------------1----------------1--------------8---8--|
D|---------------------2----------------0--------------9---7--|
A|---------------------2----------------2--------------9---9--|
E|---------------------0----------------0--------------7---7--|
  Now lets  be real... Just like a child...  ...all my toys

                        E  E7                  B  B7
e|----------------------0---0------------------7---7--|
B|----------------------0---3------------------7---7--|
G|----------------------1---1------------------8---8--|
D|----------------------2---0------------------9---7--|
A|----------------------2---2------------------9---9--|
E|----------------------0---0------------------7---7--|
  Call me dumb, call me wild... ...with little boys

  G#               F#    F             A#m  Bm Cm C#
e|-4---------------9-----9--------------6----7--8--4--|
B|-4---------------9----10--------------6----7--8--4--|
G|-5--------------11-----X--------------6----7--8--6--|
D|-6--------------11----10--------------8----9-10--6--|
A|-6---------------9-----8--------------8----9-10--4--|
E|-4---------------9-----X--------------6----7--8--4--|
  Oh, and now...   Shower...  ...at the bar...

                    F#  G#     Adim            (A#m) C#
e|------------------9----9------5----------------6----9-|
B|------------------9---10------4----------------6----9-|
G|-----------------11----X------5----------------6---10-|
D|-----------------11---10------4----------------8---11-|
A|------------------9----8------X----------------6---11-|
E|------------------9----X------X----------------6----9-|
  This sugars  gone sour... ...gone way to far

                  F#            F             A#m                    D#
e|-----------------9------------8--------------6---------------------6------|
B|-----------------9------------8--------------6---------------------6------|
G|----------------11-----------10--------------6---------------------8------|
D|----------------11-----------10--------------8---------------------8------|
A|-----------------9------------8--------------8---------------------6------|
E|-----------------9------------8--------------6---------------------6------|
  Every time... I feel... ...on top of... The ***** ...telling me no

                     D#m7             Fm7      F#maj7
e|--------------------6----------------8--------9------------|
B|--------------------7----------------9-------11------------|
G|--------------------6----------------8-------10------------|
D|--------------------8---------------10-------11------------|
A|--------------------6----------------8--------9------------|
E|--------------------X----------------X--------X------------|
  Its  got nothing... Do with me... ...not even you, you see
  Its  part of...     Chemistry...     Demon ...killing me

     Fm7         D#m7                      A      G#        D#m7
e|----8-----------6------------------------0-------4---------6-------------|
B|----9-----------7------------------------2-------4---------7-------------|
G|----8-----------6------------------------2-------5---------6-------------|
D|---10-----------8------------------------2-------6---------8-------------|
A|----8-----------6------------------------0-------6---------6-------------|
E|----X-----------X------------------------0-------4---------X-------------|
  And oh Christ its  filling me, its  this jealousy, oh I just cant  believe

          A       G#      F#                                         C#7
e|--------0-------4-------9------------------------------------------4---|
B|--------2-------4-------9------------------------------------------6---|
G|--------2-------5------11------------------------------------------4---|
D|--------2-------6------11------------------------------------------6---|
A|--------0-------6-------9------------------------------------------4---|
E|--------0-------4-------9------------------------------------------4---|
  In this jealousy... For you... Oh this jealousy, this jealousy for you
Tap to rate this tab
 
# A B C D E F G H I J K L M N O P Q R S T U V W X Y Z