Song name
# A B C D E F G H I J K L M N O P Q R S T U V W X Y Z

Darren Criss - I Still Think tab

Intro:
Fmaj7
e|---0---0---0---0-----------|
B|----1---1---1---1----------|
G|-----2---2---2---2---------|
D|--3---3---3---3------------|
A|---------------------------|
E|---------------------------|

C
e|---0---0---0---0-----------|
B|----1---1---1---1----------|
G|-----0---0---0---0---------|
D|---------------------------|
A|--3---3---3---3------------|
E|---------------------------|

G7
e|---1---1-------------------|
B|----0---0------------------|
G|-----0---0-----------------|
D|---------------------------|
A|---------------------------|
E|--3---3--------------------|

Am
e|---0---0---------------------|
B|----1---1--------------------|
G|-----2---2-------------------|
D|--2---2----------------------|
A|-----------------------------|
E|-----------------------------|

Strum Em (power chord)

Verses: Fmaj7, C, G7, Em (strum all as power chords, you can strum them how you want but 
I tend to just strum up to make it sound more accurate)

Pre-chorus: Fmaj7, Am, D

Chorus: C, Am7, Dm7, G7 (until you get to "the world will roll their eyes" where you 
switch to Fmaj7 instead of G7 and just strum it once)
Tap to rate this tab
 
# A B C D E F G H I J K L M N O P Q R S T U V W X Y Z