Song name
# A B C D E F G H I J K L M N O P Q R S T U V W X Y Z

Darren Criss - Dont You tab

Chords used:

040440
200440
020440
446654 - C#m
244322 - F
244222 - Fm
002210 - Am
021202
002220 - A
224432 - Bm
022100 - E
076750 - E7
054530 - D7


Intro:
-----0--------0---------0-------0-------|
--------4------0-----------4------0-----|
--------4------------------4------------|
---0------------------0-----------------|
--------4--4---------------2--2---------|
-0------------------2-------------------|

-----0--------0---------0---------------|
--------4------0-----------4------------|
--------4------------------4------------|
---0------------------0-----------------|
--------4--4---------------2------------|
-0------------------2-------------------|



Verse:
Say...               Wasn't that a funny day
-----0--------0---------0-------0-------|
--------4------0-----------4------0-----|
--------4------------------4------------|
---0------------------0-----------------|
--------4--4---------------2--2---------|
-0------------------2-------------------|

                    Gee you had a funny way
-----0--------0---------0-------0-------|
--------4------0-----------4------0-----|
--------4------------------4------------|
---0------------------0-----------------|
--------4--4---------------2--2---------|
-0------------------2-------------------|

A way about you     A kind of glow
-----4------4-----------2-----2---------|
-------5------4-----------2-----2-------|
-------6------------------3-------------|
---6------------------4-----------------|
-------4--4---------------4-4-----------|
-4------------------2-------------------|

Of something new...
-----2-----2----------0--2--------------|
-------2-----2-----------0--------------|
-------2-----------------2--------------|
---4----------------2----1--------------|
-------4-4---------------2--------------|
-2----------------0------0--------------|


And... sure            I'll admit that i'm the same
-----0--------0---------0-------0-------|
--------4------0-----------4------0-----|
--------4------------------4------------|
---0------------------0-----------------|
--------4--4---------------2--2---------|
-0------------------2-------------------|

                    Another sucker for
-----0--------0---------0-------0-------|
--------4------0-----------4------0-----|
--------4------------------4------------|
---0------------------0-----------------|
--------4--4---------------2--2---------|
-0------------------2-------------------|

A game kids like to play
-----4------4-----------2-----2---------|
-------5------4-----------2-----2-------|
-------6------------------3-------------|
---6------------------4-----------------|
-------4--4---------------4-4-----------|
-4------------------2-------------------|

And the rules they like to use...
-----2-----2----------0--2--------------|
-------2-----2-----------0--------------|
-------2-----------------2--------------|
---4----------------2----1--------------|
-------4-4---------------2--------------|
-2----------------0------0--------------|

Chorus:
But don't you want the way I feel?
-----0-----0--------0-----0-------------|
-------2-----2--------1-----1-----------|
-------2--------------2-----------------|
---2--------------2---------------------|
-------0-0------------0-0---------------|
-0--------------0-----------------------|

Don't you want the way I feel?
-----4-----4--------2-----2-------------|
-------5-----5--------2-----2-----------|
-------6--------------3-----------------|
---6--------------4---------------------|
-------4-4------------4-4---------------|
-4--------------2-----------------------|

Don't you want the way I feel for you?
-----2-----2--------0-----0-------------|
-------2-----2--------1-----1-----------|
-------2--------------2-----------------|
---4--------------2---------------------|
-------4-4------------0-0---------------|
-2--------------0-----------------------|

Repeat for next verses, apart from this one:

Bm               Bm
Here we are, two strangers, in a

E               E
Very different place, who

Am               Am
Knows what will happen to us

E               E
Next?

        Here we are with nothing
----------------------------------|
-3--3------------5--5-------------|
-4--4------------7--7-------------|
----------------------------------|
-2--2------------7--7-------------|
----------------------------------|

But this little spark         It's too
-----------------------------------------|
-4--4-------------------3--3-------------|
-4--4-------------------5--5-------------|
-----------------------------------------|
-4--4-------------------5--5-------------|
-----------------------------------------|

Cold outside to lay this fire to rest
-----------------------------------------------------|
-2--2-----------2--2----------------------------1----|
-3--3-----------2--2----------------------------2----|
-----------------------------------------------------|
-4--4-----------4--2----------------------------0----|
-----------------------------------------------------|

Then back to normal for the rest of the verse/song.

Enjoy :)
Tap to rate this tab
 
# A B C D E F G H I J K L M N O P Q R S T U V W X Y Z