Song name
# A B C D E F G H I J K L M N O P Q R S T U V W X Y Z

Darren Korb - Build That Wall Zias Theme tab

Just the notes, listen to the song for the rhythm.

Drop D Tuning.

Intro
|---------------------------------------------------------------------------|
|---------------------------------------------------------------------------|
|-------------------6-6-6---6-------------------2-2-2-2---6-6---------6-6-6-|
|-------2-----------6-6-6---6-------2-----------4-4-4-4---6-6---6-6---6-6-6-|
|---2-4---4-4-2-4---------------2-4---4-2---2---4-4-4-4-4-------6-6-4-----4-|
|-6---------------6-------6---6-----------6---6-4-4-4-4-------6-------------|


Verse

I dig my hole you build a wall            I dig my hole you build a wall
|---------------------------------------------------------------------------|
|---------------------------------------------------------------------------|
|---------------------------------6-6-6-6---6-6---6-6-----------------------|
|---------------------------------6-6-6-6---6-6---6-6---4-4---4-4-----------|
|-------------------------------4---------4-----4-------4-4---4-4-----------|
|-----------------------------------------------------4-----4---------------|

One day that wall is gonna fall.
|---------------------------------------------------------------------------|
|---------------------------------------------------------------------------|
|---6-6---------6-6-6-------------------------------------------------------|
|---6-6---6-6---6-6-6-------------------------------------------------------|
|-4-------6-6-4-----4-------------------------------------------------------|
|-------6-------------------------------------------------------------------|

Gon' build that city on a hill           Gon' build that city on a hill
|---------------------------------------------------------------------------|
|---------------------------------------------------------------------------|
|---------------------------------6-6-6-6---6-6---6-6-----------------------|
|---------------------------------6-6-6-6---6-6---6-6---4-4---4-4-----------|
|-------------------------------4---------4-----4-------4-4---4-4-----------|
|-----------------------------------------------------4-----4---------------|


Some day those tears are gonna spill
|---------------------------------------------------------------------------|
|---------------------------------------------------------------------------|
|---6-6---------6-6-6-------------------------------------------------------|
|---6-6---6-6---6-6-6-------------------------------------------------------|
|-4-------6-6-4-----4-------------------------------------------------------|
|-------6-------------------------------------------------------------------|


Chorus

So build that wall and build it strong cause
|--------------------------|
|--------------------------|
|--------------------------|
|----2-2---2-2---1-1---1-1-|
|----2-2---2-2---1-1---1-1-|
|--2-----2-----1-----1-----|

We'll be there before too long
|--------------------------|
|--------------------------|
|--------------------------|
|----2-2---2-2---1-1---1-1-|
|----2-2---2-2---1-1---1-1-|
|--2-----2-----1-----1-----|
Tap to rate this tab
# A B C D E F G H I J K L M N O P Q R S T U V W X Y Z