Song name
# A B C D E F G H I J K L M N O P Q R S T U V W X Y Z

Darren Korb - Brusher Patrol tab

This is the intro to "Brusher Patrol" up until the 1:00 mark.
Listen to song for number of times played and rhythm.
Enjoy.
-EP


|---6-6-6--9-9-9--5-5-5--5-5--5-------------------|
|--4-4-4--7-7-7--5-5-5--5-5--5--------------------|
|-6------9------6------6----6---------------------|
|-------------------------------------------------|
|-------------------------------------------------|
|-------------------------------------------------|

|-------------------------------------------------|
|-------------------------------------------------|
|-5~---7~---4~------------------------------------|
|-5~---7~---4~------------------------------------|
|-3~---5~---2~------------------------------------|
|-------------------------------------------------|

|-------3-------3-------3--5s6-5s6----------------|
|-1-3-4-5-1-3-4-5-1-3-4-5--5s6-5s6----------------|
|-------------------------------------------------|
|-------------------------------------------------|
|-------------------------------------------------|
|-------------------------------------------------|

|-3-3-2-1---3-3-2-1----3---3----5s6---------------|
|-5-5-4-3---5-5-4-3----5---5----5s6---------------|
|---------5---------5----5---5-6------------------|
|---------5---------5----5---5--------------------|
|-------------------------------------------------|
|-------------------------------------------------|
Tap to rate this tab
# A B C D E F G H I J K L M N O P Q R S T U V W X Y Z