Song name
# A B C D E F G H I J K L M N O P Q R S T U V W X Y Z

Darren Korb - Slingers Song tab

1.
|-----------------------------------------------------|
|-----------------------------------------------------|
|-6----------9s11-11---------6----------9s11----------|
|-6----------9s11-11---------6----------9s11----------|    On final play
|-4-4-7p6p4--7s9--9---2h4-4--4-4-7p6p4--7s9---2h4-4---|         2
|-4----------7s9--9---2------4----------7s9---2-------|
2.
|-----------------------------------------------------|
|-----------------------------------------------------|
|-------------------------------3---4-----------------|
|-------------------------------3---4-----------------|
|--7-4-4------2-----1--7-4-4----1---2-----------------|
|--------2h3h4-2h3h4----------2---4-------------------|

And there you have it, listen to the song to get how many times you need to play each 
part and the rhythm, that is the whole song. Please enjoy.
-EP
Tap to rate this tab
# A B C D E F G H I J K L M N O P Q R S T U V W X Y Z