Song name
# A B C D E F G H I J K L M N O P Q R S T U V W X Y Z

Darren Korb - Slingers Song tab

Here you go people! Finally got 'round to tabbing it.

When you hit the 3rd fret on the 2nd and 3rd strings, you should bend the note slightly. 
Listen to the song if that makes no sense!
d#|------------------------|
A#|------------------------|
F#|------------------------|
C#|----0-3-0-3-3/5-------0-|
G#|0~--------3-3/5---0-3---|
C#|0~--------3-3/5---------| Repeat a few times

d#|--------------------------------------------------------|
A#|--------------------------------------------------------|
F#|--------------------------------------------------------|
C#|3--0-0-------0-3--0-0------3--0-0-------0-3--0-0------0-|
G#|--------3--2-----------2-3---------3--2-----------2-3-0-|
C#|------------------------------------------------------0-| Back to start

Thanks!
 - Dom L
Tap to rate this tab
 
# A B C D E F G H I J K L M N O P Q R S T U V W X Y Z