Song name
# A B C D E F G H I J K L M N O P Q R S T U V W X Y Z

Darren Korb - Slingers Song tab

Saw a couple of tabs for this and thought they needed to be slightly adjusted and 
a little more basic. This is how I hear it.

Standard Tuning

b - bend
) - repeat
/ - slide up
\ - slide down         

|---------------------------------9-------------------|
|---------------------------------13b-----------------|
|-----------------------------------------------------|   
|------2b---2-/-4----2b-4-----)-----------------------|    This is played
|-4--4----4-2-/-4--4------4---)-----------------------|     throughout.
|-4-----------------------4---)-----------------------|

                                 The part on the b and
                                 high e is an example of
                                 fills played in intervals.
                                 I'm not sure of the others
                                 but that is the first. Feel
                                 free to expand on it.

|-----------------------------------------------------|
|-----------------------------------------------------|
|-----------------------------------------------------|
|---2-2--------2---------2-2--------------------------|
|-4----4\1-2-1---4\1-2-4-----4\1-2-4------------------|
|----------------------------------4------------------|

                                      Return to main at
                                      this point.


-FuBi0
Tap to rate this tab
 
# A B C D E F G H I J K L M N O P Q R S T U V W X Y Z