Song name
# A B C D E F G H I J K L M N O P Q R S T U V W X Y Z

Darren Korb - Mother Im Here chords

Highlighted       Show chord diagrams
-----------------------------------------------------------------------------
                             Darren Korb -  Mother, I'm here
-----------------------------------------------------------------------------
Tabbed by:Broomball

Email:brumbal123@gmail.com

Tuning: standard

Play this during the verses

    Cm         Fm         D#         D
e|--3-----------1----------3---------2--------------|
B|--4-----------1----------1---------3--------------|
G|--5-----------1----------3---------2--------------|
D|--5-----------3----------1---------0--------------|
A|--3-----------3----------1------------------------|
E|--------------1-----------------------------------|


I see, your star you left it burning for me
Mother, I'm here

  D#         D

e|3---------2---------------------------------------|
B|1---------3---------------------------------------|
G|3---------2---------------------------------------|
D|1---------0---------------------------------------|
A|1-------------------------------------------------|
E|--------------------------------------------------|

Note: Sometimes skip the low E string with B string to create a better sound
Tap to rate this tab
# A B C D E F G H I J K L M N O P Q R S T U V W X Y Z