Song name
# A B C D E F G H I J K L M N O P Q R S T U V W X Y Z

Darren Korb - Spike In A Rail tab

-------------------------------------------------------------------------------
                             SPIKE IN A RAIL - Darren Korb
-------------------------------------------------------------------------------
Tabbed by: DamnoMan / deadpepperx
Email:

Tuning: Drop C [ C G C F A D ]

Note: Most of the credit for this should go to Dom L (DamnoMan). I found his 
version but noticed a few inconsistencies when listening to the Bastion OST album 
which I've tried to sort here.

d|----------------------------|
A|----------------------------|
F|----------------------------|
C|----0h3-0--0-----------0----|
G|0h3--------3p0-3p0-3p0-3/5--|
C|----------------------------|

d|-------------------------|
A|-------------------------|
F|-------------------------|
C|----0h3-0--0-------------|
G|00h3-------3p0-3p0-3br0--|
C|-------------------3br0--|

d|----------------------------|
A|----------------------------|
F|----------------------------|
C|----0h3-0--0-----------0----|
G|00h3-------3p0-3p0-3p0-3/5--|
C|----------------------------|

d|----------------------------|
A|----------------------------|
F|----------------------------|
C|5h7p5-----------------------|
G|-----8--5h8p5\3----------0--|
C|-----------------5h7p5\3-0--|

(alternatively, you can play the last bar like this)

d|---------------------------|
A|---------------------------|
F|0h2p0----------------------|
C|-----3--0h3p0--------------|
G|-------------3----------0--|
C|----------------5h7p5\3-0--|

- Back to Start
Tap to rate this tab
# A B C D E F G H I J K L M N O P Q R S T U V W X Y Z