Song name
# A B C D E F G H I J K L M N O P Q R S T U V W X Y Z

Darren Korb - Mother Im Here tab

-------------------------------------------------------------------------------
                 MOTHER, I'M HERE (ZULF'S THEME) - Darren Korb
-------------------------------------------------------------------------------
Tabbed by: foxbox87
email:

Tuning: CGCFGC

**Note that this can also be played in DADGAD (just up a whole step from the
original key).  I HIGHLY recommend trying the the CGCFGC tuning at least once, 
it really gives the song that slinky, western-y, dark feel.  Experiment with
the strumming patterns yourself or play along with the song to see how he does
it.  Enjoy!!


VERSES

      1   +   2   +   3   +   4   +         1   +   2   +   3   +   4   +

D|----0---------------0-------0-0-0----|----0---------------0-------0-0-0----|
A|----0---------------0-------0-0-0----|----0---------------0-------0-0-0----|
G|----2---------------2-------2-2-2----|----3---------------3-------3-3-3----|
D|----0---------------0-------0-0-0----|----5---------------5-------5-5-5----|
A|----0---------------0-------0-0-0----|----5---------------5-------5-5-5----|
D|----0---------------0-------0-0-0----|----5---------------5-------5-5-5----|

  1.          I      set my   sail               Fly the wind it will take me
  2.         Lie     on  my   back              Clouds are making way for me    
  3.         Eyes   open      wide              Feel your heart and its glowing
  4.          I     take your hand               Now you'll never be lonely



      1   +   2   +   3   +   4   +         1   +   2   +   3   +   4   +

D|----0---------------0-------0-0-0----|----0---------------0-------0-0-0----|
A|----0---------------0-------0-0-0----|----0---------------0-------0-0-0----|
G|----2---------------2-------2-2-2----|----1---------------1-------1-1-1----|
D|----3---------------3-------3-3-3----|----2---------------2-------2-2-2----|
A|----3---------------3-------3-3-3----|----2---------------2-------2-2-2----|
D|----3---------------3-------3-3-3----|----2---------------2-------2-2-2----|

  1.      Back    to      my        home,     sweet   home.
  2.      I'm     co  -  ming       home,     sweet   home.
  3.      I'm     wel -  come       home,     sweet   home.
  4.      Not     when    I'm       home,     sweet   home.



CHORUS

      1   +   2   +   3   +   4   +         1   +   2   +   3   +   4   +

D|----0-------0-------0-------0-0-0----|----0-------0-------0-------0-0-0----|
A|----0-------0-------0-------0-0-0----|----0-------0-------0-------0-0-0----|
G|----2-------2-------2-------2-2-2----|----1-------1-------1-------1-1-1----|
D|----3-------3-------3-------3-3-3----|----2-------2-------2-------2-2-2----|
A|----3-------3-------3-------3-3-3----|----2-------2-------2-------2-2-2----|
D|----3-------3-------3-------3-3-3----|----2-------2-------2-------2-2-2----|

              I  see         your star,        you left it burning for me



      1   +   2   +   3   +   4   +         1   +   2   +   3   +   4   +

D|----0-------0-------0-------0-0-0----|----0--------------------------------|
A|----0-------0-------0-------0-0-0----|----0--------------------------------|
G|----2-------2-------2-------2-2-2----|----1--------------------------------|
D|----3-------3-------3-------3-3-3----|----2----(LET RING)------------------|
A|----3-------3-------3-------3-3-3----|----2--------------------------------|
D|----3-------3-------3-------3-3-3----|----2--------------------------------|

            Mother            I'm         here.




************************************

| /   slide up
| \   slide down
| h   hammer-on
| p   pull-off
| ~   vibrato
| +   harmonic
| x   Mute note
| b   Bend
| pb  Pre-bend
| br  Bend release
| pbr Pre-bend release
| brb Bend release bend

************************************
Tap to rate this tab
# A B C D E F G H I J K L M N O P Q R S T U V W X Y Z