Song name
# A B C D E F G H I J K L M N O P Q R S T U V W X Y Z

Darren Korb - Build That Wall Zias Theme chords

Highlighted       Show chord diagrams
READ  HOW  TO  PLAY  THE  CHORDS  BEFORE  YOU  PLAY  AND / OR  RATE  THIS.

DISCLAIMER: I totally just did all this by ear. The other tabs sucked. 
No. I have no idea what these chords are. Just play the damn song. Oh, and...

READ  HOW  TO  PLAY  THE  CHORDS  BEFORE  YOU  PLAY  AND / OR  RATE  THIS.

TUNING ----- CGCFGC

Chords:
    C    F    G    Eb   D
c---0----0----X----X----X-----------|
G---0----0----0----0----0-----------|
F---2----3----0----2----1-----------|
C---0----5----5----3----2-----------|
G---0----X----7----3----2-----------|
C---0----5----7----3----2-----------|

Riff 1:

c--------------------0-|
G--------------------0-|
F--------------------2-|
C--------3-----------0-|
G--0-3-5---5-5p3h5---0-|
C------------------0-0-|

Riff 2:

c----------------------0-|
G----------------------0-|
F----------------------3-|
C--------3-------------5-|
G--0-3-5---5-3p0h3p0---X-|
C--------------------5-5-|

READ  HOW  TO  PLAY  THE  CHORDS  BEFORE  YOU  PLAY  AND / OR  RATE  THIS.

Intro:

Riff 1                           C
Hmmm hmmm hmmm hmmm hmmm hmmm hmhmmmmm
Riff 2                           F
Hmmm hmmm hmmm hmmm hmmm hmmm hmhmmmmm
C              G                 C
Hmmm hmmm hmmm hmmm hmmm hmmm hmhmmmmm

                            C
I dig my hole, you build a wall
                            F
I dig my hole, you build a wall
C              G                C
   One day that wall is gonna fall

                            C
Gonna build that city on a hill
                            F
Gonna build that city on a hill
C                G                 C
   Someday those tears are gonna spill

   Eb                  D
So build that wall and build it strong
       Eb               D
'Cause we'll be there before too long

Riff 1                           C
Gonna build that wall up to the sky
                                 F
Gonna build that wall up to the sky
C               G                C
   Someday your bird is gonna fly

                                   C
Gonna build that wall until it's done
                                   F
Gonna build that wall until it's done
C                 G                C
   But now you've got nowhere to run

   Eb                  D
So build that wall and build it strong
       Eb               D
'Cause we'll be there before too long
Tap to rate this tab
# A B C D E F G H I J K L M N O P Q R S T U V W X Y Z