Song name
# A B C D E F G H I J K L M N O P Q R S T U V W X Y Z

Darren Korb - Slingers Song tab

To be totally honest, I'm pretty sure this song is being played by a steel
guitar, so there are a couple things that we electric and acoustic guitarists
have to do to keep that sound. Remember that steel guitarists don't really
care about frets, so make your bends slow and smooth.

The bends here sort of throw the rhythm of the tab off, so be careful. Most
importantly, the fret being bent to is what's shown. For example, "2b3r2p0"
means that you should play the second fret, bend up a half step (Sounding
like the third fret), and then straighten the string again - before the
pulling-off to an open string.

d#|-----------------------------------|
A#|-----------------------------------|
F#|-----------------------------------|
C#|-----0-2b3r2p0--3--3/5----------0~~|
G#|0~--------------3--3/5---0--3b5~~--|
C#|0~--------------3--3/5-------------| Repeat 

GUITAR 1
d#|---------------|---------------|---------------|---------------|
A#|---------------|---------------|---------------|---------------|
F#|---------------|---------------|---------------|---------------|
C#|-3--0-0--------|-3--0-0--------|-3--0-0--------|-3--0-0--------|
G#|----------3--2-|----------2--3-|----------3--2-|----------2--3-|
C#|---------------|---------------|---------------|---------------|
GUITAR 2
d#|---------------|---------------|---------------|---------------|
A#|---------------|---------------|---------------|---------------|
F#|---------------|---------------|---------------|---------------|
C#|---------------|---------------|---------------|---------------|
G#|---------------|---------------|---------------|---------------|
C#|0-0-0-0-3p0-3p0|0-0-0-0-3/5-3/5|0-0-0-0-3p0-3p0|0-0-0-0-3/5-3/5|

And finally, for a better feel of the beat (or if you're so awesome
that you can play both at the same time), here they are together.

GUITAR

d#|---------------|---------------|---------------|---------------|
A#|---------------|---------------|---------------|---------------|
F#|---------------|---------------|---------------|---------------|
C#|-3--0-0--------|-3--0-0--------|-3--0-0--------|-3--0-0--------|
G#|----------3--2-|----------2--3-|----------3--2-|----------2--3-|
C#|0-0-0-0-3p0-3p0|0-0-0-0-3/5-3/5|0-0-0-0-3p0-3p0|0-0-0-0-3/5-3/5|
Tap to rate this tab
# A B C D E F G H I J K L M N O P Q R S T U V W X Y Z