Song name
# A B C D E F G H I J K L M N O P Q R S T U V W X Y Z

Darren Korb - In Case Of Trouble tab

-------------------------------------------------------------------------------
      In Case of Trouble (Bastion Soundtrack) - Darren Korb
-------------------------------------------------------------------------------

Tabbed by: Jurgy

Tuning: DADGAD


This is the clossest I could get to the song. It isn't 100% correct/complete yet 
but I might upload a better version later on.

I only tabbed the string that is important but you have to strum almost all the strings.


Please put any errors in the comment section and listen to the song for the rhythm.
Goodluck!

0^2 = 0 Hammer-on 2


 |------Repeat this twice--------------------------------------------------------------------(2x)
 |---------------------------------------------(2x)
|--------------------------------------------------|--------------------------------------------|
|--------------------------------------------------|--------------------------------------------|
|---0^2-2-2--0^2-2-2-2-2-2--0^2-2-2--0^2-2-2-2-2-2-|--------------------------------------------|
|--------------------------------------------------|--------------------------------------------|
|--------------------------------------------------|--------------------------------------------|
|--------------------------------------------------|-3-3/5--5-5-5--5-5-5-5-5--5-5-5--5-5-5-5\3--|

 |---------------------------------------------(2x)|
|--------------------------------------------------|
|--------------------------------------------------|
|---0^2-2-2--0^2-2-2-2-2-2--0^2-2-2--0^2-2-2-2-2-2-|
|--------------------------------------------------|
|--------------------------------------------------|
|--------------------------------------------------|


|---------------------|------------|----------------|
|---------------------|------------|----------------|
|/7-7-5-5-2-5-5/7-7-5-|-7/10-10-97-|-5-5-2-5-5/7-7-5|
|---------------------|------------|----------------|
|---------------------|------------|----------------|
|---------------------|------------|----------------|

|------------|-------------------|
|------------|-------------------|
|-7/10-10-97-|-------------------|
|------------|-------------------|
|------------|-------------------|
|------------|-5-5-5--5-5-5-5-\3-|

 |------------------------------------------------------------------------------------------(2x)
 |---------------------------------------------(2x)
|--------------------------------------------------|--------------------------------------------|
|--------------------------------------------------|--------------------------------------------|
|---0^2-2-2--0^2-2-2-2-2-2--0^2-2-2--0^2-2-2-2-2-2-|--------------------------------------------|
|--------------------------------------------------|--------------------------------------------|
|--------------------------------------------------|--------------------------------------------|
|--------------------------------------------------|-3-3/5--5-5-5--5-5-5-5-5--5-5-5--5-5-5-5\3--|


                                                |------------------(3x)
|----------------------------------------------|----------------------|
|----------------------------------------------|----------------------|
|---0^2-2-2--0^2-2-2-2-2--0^2-2-2--0^2-2-2-2-2-|-1-1-1-1-1-2-2-2-2-2--|
|----------------------------------------------|----------------------|
|----------------------------------------------|----------------------|
|----------------------------------------------|----------------------|
Tap to rate this tab
# A B C D E F G H I J K L M N O P Q R S T U V W X Y Z