Guitaretab - guitar tabs
Song name
# A B C D E F G H I J K L M N O P Q R S T U V W X Y Z

Darren Styles - Come Running tab

This is my first tab. after listening to the sag a couple times i noticed how easy
it was.  its a lil itchy on the riff but im sure i got most of it down everything else 
be perfect.

Picking

E-9---9---9---9-----8---8---8---8-----6---6---6---6-----6---6---6---6-------|
B--9---9---9---9-----9---9---9---9-----9---9---9---9-----9---9---9---9------|
G---6---6---6---6-----6---6---6---6-----6---6---6---6-----6---6---6---6-----|
D---------------------------------------------------------------------------|
A---------------------------------------------------------------------------|
E---------------------------------------------------------------------------|

Strumming
[ Tab from: http://www.guitaretab.com/d/darren-styles/192165.html ]
E--------4-----2----|
B--1-----6-----4----|
G--3-----6-----4----|
D--3-----5-----3----|
A--2-----4-----2----|
E--1-----4-----2----|


Riff (about 2:36 into the song)

E------------6---------------6---------------6------------------------------|
B------6-9-9---6-------6-9-9-----------6-9-9-----------6-9-76---------------|
G----6---------------6---------8-----6---------6-----6----------------------|
D--6---------------6---------------6---------------6------------------------|
A---------------------------------------------------------------------------|
E---------------------------------------------------------------------------|

and here it is...pretty simple. any comments or questions or comments please e-
mail me. (j.cox808@gmail.com)
Related for Come Running tab
Come Running chords by Darren Styles