Guitaretab - guitar tabs
Song name
# A B C D E F G H I J K L M N O P Q R S T U V W X Y Z

Darryls Grocery Bag - Frozen Ropes tab

Darryl's Grocery Bag - Frozen Ropes    www.darrylsgrocerybag.com 
 (Calgary Canada)                      www.darrylsgrocerybag.net
                                       www.meterrecords.com
intro
e|------------------||------------------||------------------|
B|------------------||------------------||------------------|
G|------------------||------------------||------------------|                   
D|-2--77----11--99--||-2--77----11--99--||-2--77----11--99--|
A|-2--77----11--99--||-2--77----11--99--||-2--77----11--99--|
E|-0--55----9---77--||-0--55----9---77--||-0--55----9---77--|


e|----------------------------||-----------------------------|
B|----------------------------||-----------------------------|
G|----------------------------||-----------------------------|
D|-2--77----11--99----2-------||-2------7------11------7-----|(x2)
A|-2--77----11--99----2-ring--||-2(x16)-7(x16)-11(x16)-7(x16)|
E|-0--55----9---77----0-------||-0------5------9-------5-----|

e|----------------------------------------|
B|----------------------------------------|
G|----------------------------------------|
D|-2--------7--------2--------11--9--7----|
A|-2--------7--------2--------11--9--7ring|
E|-0--------5--------0--------9---7--5----|
[ Tab from: http://www.guitaretab.com/d/darryls-grocery-bag/32968.html ]
e|--------------------------------------||------------------------------|
B|--------------------------------------||------------------------------|
G|--------------------------------------||------------------------------|
D|-111111111111997----11111111111997----||-2------7------11------7------|
A|-111111111111997----11111111111997----||-2(x16)-7(x16)-11(x16)-7(x16)-|
E|-9-9-9-9-9-9-775----9-9-9-9-9-9775----||-0------5------9-------5------|

e|----------------------------------------------|
B|----------------------------------------------|
G|----------------------------------------------|
D|-2--------7--------2--------11--9--7----------|
A|-2--------7--------2--------11--9--7-ring-----|
E|-0--------5--------0--------9---7--5----------|

e|-------------------------------------||------------------------|
B|-------------------------------------||------------------------|
G|-------------------------------------||------------------------|
D|-2--77----11--99----2--77----11--99--||-2-77-11-99--2-77-11-99-|
A|-2--77----11--99----2--77----11--99--||-2-77-11-99--2-77-11-99-|
E|-0--55----9---77----0--55----9---77--||-0-55-9--77--0-55-9--77-|

e|----------------------------------------|
B|----------------------------------------|
G|----------------------------------------|
D|-2-77-11-99--2------7-----2-------------|                            
A|-2-77-11-99--2-ring-7ring-2--ring-------|
E|-0-55-9--77--0------5-----0-------------|

e|-----------------------------|   
B|-----------------------------|    
G|-----------------------------|(x2)
D|-2------7------11------7-----|    
A|-2(x16)-7(x16)-11(x16)-7(x16)|   
E|-0------5------9-------5-----|
Advertisement will be closed in 10 seconds