Song name
# A B C D E F G H I J K L M N O P Q R S T U V W X Y Z

Dartz - Prego Triangolos tab

Dartz! - Prego Triangolos
Tabbed by: David H

Tuning :Standard

e|---------|
B|---------|
G|---------|
D|---------|
A|-5-5-5-5-| x4
E|---------|

e|---------------------------------|
B|---------------------------------|
G|---------5b------5b------5b------|
D|---------5-------5-------5-------|
A|-5-5-5-5-5-5-5-5-5-5-5-5-5-5-5-5-|
E|---------------------------------|

e|-----------------------------------------------------|
B|-----------------------------------------------------|
G|---------------------2p0-----------------------------|
D|-4p0-------4p0----------4p0--4p0-------4p0-----------|
A|----5p0-6p0---5p0-3p0-----------5p0-6p0---6p0-5p0--3-| x2
E|-----------------------------------------------------|

e|-------------------------------------|
B|-------------------------------------|
G|----------------2p0------------------|
D|-4p0-0-2-4-0--------4p0-0-2-4-0------|
A|-------------0h3--------------------3| x2
E|--------------------------------0h5--|

e|-------|
B|-------|
G|-------|
D|-------|
A|-3--4--|
E|-------|

e|-----------------|
B|-----------------|
G|-----------------|
D|--2----2---------|
A|--------------0--|    --|
E|-2-2--2-2-0-1----| x3   |
                          |
e|-----------------|      | x2
B|-----------------|      |
G|-----------------|    --|
D|--2---44--77-----|
A|------22--55-----|
E|-2-2--22--55-----|

e|-----------------|
B|-11b(13)---------|
G|-----------------|
D|-----------------|
A|-----------------|
E|-----------------|  chorus break then repeat x1

e|--------------------------|
B|--------------------------|
G|--------------------------|
D|--2----------2------------|
A|-----------------------0--|    
E|-2-2b(3)p0--2-2b(3)p0-1---| x3   
                                   
e|-----------------------|         
B|-----------------------|         
G|-----------------------|       
D|--2---------44--77-----|
A|------------22--55-----|
E|-2-2b(3)p0--22--55-----|

e|-----------------|
B|-----------------|
G|-----------------|
D|--2----2---------|
A|--------------0--|    
E|-2-2--2-2-0-1----| x3   
                          
e|-----------------|      
B|-----------------|      
G|-----------------|    
D|--2---44--77-----|
A|------22--55-----|
E|-2-2--22--55-----|

e|---------------------|
B|---------------------|
G|------------------5b-|
D|------------------5--|
A|-55555--555-55555----| x2
E|---------------------|

e|--------------------------------------|
B|--------------------------------------|
G|--------------------------------------|
D|-------------------77777-777-77777-7--|
A|-88888-888-88888-8--------------------|
E|--------------------------------------|
not overly sure on these chords, but sounds good enough
e|-8-8-8-8-8--8-8-8--8-8-8-8-8--8--7-7-7-7-7--7-7-7--7-7-7-7-7--7--|
B|-8-8-8-8-8--8-8-8--8-8-8-8-8--8----------------------------------|
G|-1010101010-101010-1010101010-10-9-9-9-9-9--9-9-9--9-9-9-9-9--9--|
D|-1010101010-101010-1010101010-10-7-7-7-7-7--7-7-7--7-7-7-7-7--7--|
A|-8-8-8-8-8--8-8-8--8-8-8-8-8--8--7-7-7-7-7--7-7-7--7-7-7-7-7--7--|
E|-----------------------------------------------------------------|

e|-8-8-8-8----7-7-7-7-----|
B|-8-8-8-8----------------|
G|-10101010---9-9-9-9-----|
D|-10101010---7-7-7-7-----| x2
A|-8-8-8-8----7-7-7-7-----|
E|------------------------|

e|-------------------------------------|
B|-------------------------------------|
G|-------------------------------------|
D|-12121212-12121212-9-9-9-9--129-129--|
A|-10101010-10101010-10101010-10101010-| x2
E|-------------------------------------|

e|-------------------------------------|
B|-------------------------------------|
G|-------------------------------------|
D|-12121212-12121212-9-9-9-9--9-9-9-9--|
A|-12121212-12121212-12121212-12121212-|
E|-10101010-10101010-10101010-10101010-|


e|-----------------------------------------------------|
B|-----------------------------------------------------|
G|----------------------2p0----------------------------|
D|-4p0-------4p0-----------4p0-4p0-------5p0-----------|
A|----5p0-6p0---5p0-3p0-----------5p0-6p0---6p0-5p0--3-| x4
E|-----------------------------------------------------|

e|-----------------|
B|-----------------|
G|-----------------|
D|------4----------|
A|-3-4--4----------|
E|------2----------|


Enjoy

Key
b(*) = bend to (note)
p = pull off
h = hammer on
Tap to rate this tab
# A B C D E F G H I J K L M N O P Q R S T U V W X Y Z