Song name
# A B C D E F G H I J K L M N O P Q R S T U V W X Y Z

Dartz - Teaching Me To Dance tab

Tabbed by:micky
Email: mickybraham@hotmail.com

Tuning: standard

E|------------------------------|
B|--------------8-------------7-|
G|--7s5p0----------7s5p0--------|
D|---------7-10----------7-10---|    x4
A|------------------------------|
E|------------------------------|

E|--------|
B|--------|
G|--7s5p0-|
D|--------|
A|--------|
E|--------|

E|--------------------------------------------------------------------------|
B|---------------------------------------------------------------7----------|
G|-----------------------------------------------------------------7--------|
D|----7-7-7-7-10-10-0--7-7-7777-10101010---7-7-7-7-10-10-0---7-------7------|
A|--------------------------------------------------------------------------|
E|--------------------------------------------------------------------------|

E|--7-7-7-X-X-X-X-X-X-X-X--7-7-7-X-X-X-X-X-X-X-X-|
B|--7-7-7-X-X-X-X-X-X-X-X--7-7-7-X-X-X-X-X-X-X-X-|
G|--7-7-7-X-X-X-X-X-X-X-X--7-7-7-X-X-X-X-X-X-X-X-|
D|--9-9-9-X-X-X-X-X-X-X-X--9-9-9-X-X-X-X-X-X-X-X-|
A|--7-7-7-X-X-X-X-X-X-X-X--7-7-7-X-X-X-X-X-X-X-X-|
E|-----------------------------------------------|

E|--5-5-5-X-X-X-X-X-X-X-X--5-5-5-X-X-X-X-X-X-X-X-|
B|--5-5-5-X-X-X-X-X-X-X-X--5-5-5-X-X-X-X-X-X-X-X-|
G|--7-7-7-X-X-X-X-X-X-X-X--7-7-7-X-X-X-X-X-X-X-X-|
D|--5-5-5-X-X-X-X-X-X-X-X--5-5-5-X-X-X-X-X-X-X-X-|
A|--5-5-5-X-X-X-X-X-X-X-X--5-5-5-X-X-X-X-X-X-X-X-|
E|-----------------------------------------------|

THAT LAST CHORD MIGHT BE WRONG BUT ITS SOMETHING LIKE THAT I DOES ALL OF THIS A COUPLE
TIMES N THEN I GOT STUCK BUT ILL KEEP TRYING TO WORK IT OUT
Tap to rate this tab
 
# A B C D E F G H I J K L M N O P Q R S T U V W X Y Z