Guitaretab - guitar tabs
Song name
# A B C D E F G H I J K L M N O P Q R S T U V W X Y Z

Darude - Sandstorm tab

Sandstorm
By: Darude
Tabs By: JoeNobody1234

INTRO

Guitar 1
E|-8-8-8-8-8-|-13-13-13--11-11-11-|-6-8-8-8-8-8-|-11-8-8-8-8-8-|
B|-----------|--------------------|-------------|--------------|
G|-----------|--------------------|-------------|--------------|
D|-----------|--------------------|-------------|--------------|
A|-----------|--------------------|-------------|--------------|
E|-----------|--------------------|-------------|--------------|

E|-11-8-8-8-8-8-|-13-13-13--11-11-11-|-6-8-8-8-8-8-|-11-8-8-8-8-8-|
B|--------------|--------------------|-------------|--------------|
G|--------------|--------------------|-------------|--------------|
D|--------------|--------------------|-------------|--------------|
A|--------------|--------------------|-------------|--------------|
E|--------------|--------------------|-------------|--------------|

E|-11-8-8-8-8-8-|-13-13-13--11-11-11-|-6-8-8-8-8-8-|-11-8-8-8-8-8-|
B|--------------|--------------------|-------------|--------------|
G|--------------|--------------------|-------------|--------------|
D|--------------|--------------------|-------------|--------------|
A|--------------|--------------------|-------------|--------------|
E|--------------|--------------------|-------------|--------------|

E|-8-8-8--8-8-8-|-8-8-8--8-8-8-|-8-8-8--8-8-8-|-8-8-8--8-8-8-|
B|--------------|--------------|--------------|--------------|
G|--------------|--------------|--------------|--------------|
D|--------------|--------------|--------------|--------------|
A|--------------|--------------|--------------|--------------|
E|--------------|--------------|--------------|--------------|

Guitar 2

E|----------------|--------------------|----------------|----------------|
B|-13-13-13-13-13-|-16--13-13-13-13-13-|-13-13-13-13-13-|-13-13-13-13-13-|
G|----------------|--------------------|----------------|----------------|
D|----------------|--------------------|----------------|----------------|
A|----------------|--------------------|----------------|----------------|
E|----------------|--------------------|----------------|----------------|

E|----------------|----------------|--------------------------|
B|-13-13-13-13-13-|-13-13-13-13-13-|-13-13-13-13--13-13-13-13-|
G|----------------|----------------|--------------------------|
D|----------------|----------------|--------------------------|
A|----------------|----------------|--------------------------|
E|----------------|----------------|--------------------------|

E|--------------------------|--------------------------|
B|-13-13-13-13--13-13-13-13-|-13-13-13-13--13-13-13-13-|
G|--------------------------|--------------------------|
D|--------------------------|--------------------------|
A|--------------------------|--------------------------|
E|--------------------------|--------------------------|

E|--------------------------|
B|-13-13-13-13--13-13-13-13-|
G|--------------------------|
D|--------------------------|
A|--------------------------|
E|--------------------------|


MAIN RIFF

E|----------------|----------------------|----------------|----------------|
B|-13-13-13-13-13-|-13-13-13-13-13-13-13-|-18-18-18-18-18-|-16-16-16-16-16-|
G|----------------|----------------------|----------------|----------------|
D|----------------|----------------------|----------------|----------------|
A|----------------|----------------------|----------------|----------------|
E|----------------|----------------------|----------------|----------------|

E|----------------------|----------------------|----------------------|
B|-11-11-13-13-13-13-13-|-13-13-13-13-13-13-13-|-16-16-13-13-13-13-13-|
G|----------------------|----------------------|----------------------|
D|----------------------|----------------------|----------------------|
A|----------------------|----------------------|----------------------|
E|----------------------|----------------------|----------------------|

E|----------------------|----------------------|----------------------|
B|-13-13-13-13-13-13-13-|-16-16-13-13-13-13-13-|-13-13-13-13-13-13-13-|
G|----------------------|----------------------|----------------------|
D|----------------------|----------------------|----------------------|
A|----------------------|----------------------|----------------------|
E|----------------------|----------------------|----------------------|

E|----------------|----------------|----------------------|
B|-18-18-18-18-18-|-16-16-16-16-16-|-11-11-13-13-13-13-13-|
G|----------------|----------------|----------------------|
D|----------------|----------------|----------------------|
A|----------------|----------------|----------------------|
E|----------------|----------------|----------------------|

E|----------------------|----------------------|----------------------|
B|-13-13-13-13-13-13-13-|-16-16-13-13-13-13-13-|-13-13-13-13-13-13-13-|
G|----------------------|----------------------|----------------------|
D|----------------------|----------------------|----------------------|
A|----------------------|----------------------|----------------------|
E|----------------------|----------------------|----------------------|

E|----------------------|----------------------|----------------|
B|-16-16-13-13-13-13-13-|-13-13-13-13-13-13-13-|-18-18-18-18-18-|
G|----------------------|----------------------|----------------|
D|----------------------|----------------------|----------------|
A|----------------------|----------------------|----------------|
E|----------------------|----------------------|----------------|

E|----------------|----------------------|----------------------|
B|-16-16-16-16-16-|-11-11-13-13-13-13-13-|-13-13-13-13-13-13-13-|
G|----------------|----------------------|----------------------|
D|----------------|----------------------|----------------------|
A|----------------|----------------------|----------------------|
E|----------------|----------------------|----------------------|

E|----------------------|----------------------|----------------------|
B|-16-16-13-13-13-13-13-|-13-13-13-13-13-13-13-|-16-16-13-13-13-13-13-|
G|----------------------|----------------------|----------------------|
D|----------------------|----------------------|----------------------|
A|----------------------|----------------------|----------------------|
E|----------------------|----------------------|----------------------|

E|----------------------|----------------|----------------|
B|-13-13-13-13-13-13-13-|-18-18-18-18-18-|-16-16-16-16-16-|
G|----------------------|----------------|----------------|
D|----------------------|----------------|----------------|
A|----------------------|----------------|----------------|
E|----------------------|----------------|----------------|

E|----------------------|----------------------|----------------------|
B|-11-11-13-13-13-13-13-|-13-13-13-13-13-13-13-|-16-16-13-13-13-13-13-|
G|----------------------|----------------------|----------------------|
D|----------------------|----------------------|----------------------|
A|----------------------|----------------------|----------------------|
E|----------------------|----------------------|----------------------|

E|----------------------|-------------------|----------------------|
B|-13-13-13-13-13-13-13-|-16-16-13-13-13-13-|-13-13-13-13-13-13-16-|
G|----------------------|-------------------|----------------------|
D|----------------------|-------------------|----------------------|
A|----------------------|-------------------|----------------------|
E|----------------------|-------------------|----------------------|

E|-------------|----------------------|-------------|----------------------|
B|-13-13-13-13-|-13-13-13-13-13-16-16-|-13-13-13-13-|-13-13-13-13-13-13-13-|
G|-------------|----------------------|-------------|----------------------|
D|-------------|----------------------|-------------|----------------------|
A|-------------|----------------------|-------------|----------------------|
E|-------------|----------------------|-------------|----------------------|

E|-------------------|-------------------|-------------------|
B|-18-18-18-18-18-18-|-16-16-16-16-16-16-|-11-11-13-13-13-13-|
G|-------------------|-------------------|-------------------|
D|-------------------|-------------------|-------------------|
A|-------------------|-------------------|-------------------|
E|-------------------|-------------------|-------------------|

E|----------------------|-------------|----------------------|-------------|
B|-13-13-13-13-13-13-16-|-13-13-13-13-|-13-13-13-13-13-16-16-|-13-13-13-13-|
G|----------------------|-------------|----------------------|-------------|
D|----------------------|-------------|----------------------|-------------|
A|----------------------|-------------|----------------------|-------------|
E|----------------------|-------------|----------------------|-------------|

E|----------------------|-------------------|-------------------|
B|-13-13-13-13-13-13-13-|-18-18-18-18-18-18-|-16-16-16-16-16-16-|
G|----------------------|-------------------|-------------------|
D|----------------------|-------------------|-------------------|
A|----------------------|-------------------|-------------------|
E|----------------------|-------------------|-------------------|

E|-------------------|----------------------|-------------|
B|-11-11-13-13-13-13-|-13-13-13-13-13-16-16-|-13-13-13-13-|
G|-------------------|----------------------|-------------|
D|-------------------|----------------------|-------------|
A|-------------------|----------------------|-------------|
E|-------------------|----------------------|-------------|

E|----------------------|-------------|----------------------|-------------|
B|-13-13-13-13-13-16-16-|-13-13-13-13-|-13-13-13-13-13-16-16-|-13-13-13-13-|
G|----------------------|-------------|----------------------|-------------|
D|----------------------|-------------|----------------------|-------------|
A|----------------------|-------------|----------------------|-------------|
E|----------------------|-------------|----------------------|-------------|

E|----------------------|----------------|----------------|----------------|
B|-13-13-13-13-13-16-16-|-13-13-13-16-16-|-13-13-13-16-16-|-13-13-13-16-16-|
G|----------------------|----------------|----------------|----------------|
D|----------------------|----------------|----------------|----------------|
A|----------------------|----------------|----------------|----------------|
E|----------------------|----------------|----------------|----------------|

E|----------------|----------|----------|----------|----------|----------|
B|-13-13-13-16-16-|-13-13-16-|-13-13-16-|-13-13-16-|-13-13-16-|-13-13-16-|
G|----------------|----------|----------|----------|----------|----------|
D|----------------|----------|----------|----------|----------|----------|
A|----------------|----------|----------|----------|----------|----------|
E|----------------|----------|----------|----------|----------|----------|

E|----------|----------|----------|
B|-13-13-16-|-13-13-16-|-13-13-16-|
G|----------|----------|----------|
D|----------|----------|----------|
A|----------|----------|----------|
E|----------|----------|----------|


INTRO INTO SECOND PART

Guitar 1

E|-8-8-8-8-8-|-13-13-13--11-11-11-|-6-8-8-8-8-8-|-11-8-8-8-8-8-|
B|-----------|--------------------|-------------|--------------|
G|-----------|--------------------|-------------|--------------|
D|-----------|--------------------|-------------|--------------|
A|-----------|--------------------|-------------|--------------|
E|-----------|--------------------|-------------|--------------|

E|-11-8-8-8-8-8-|-13-13-13--11-11-11-|-6-8-8-8-8-8-|-11-8-8-8-8-8-|
B|--------------|--------------------|-------------|--------------|
G|--------------|--------------------|-------------|--------------|
D|--------------|--------------------|-------------|--------------|
A|--------------|--------------------|-------------|--------------|
E|--------------|--------------------|-------------|--------------|

E|-11-8-8-8-8-8-|-13-13-13--11-11-11-|-6-8-8-8-8-8-|-11-8-8-8-8-8-|
B|--------------|--------------------|-------------|--------------|
G|--------------|--------------------|-------------|--------------|
D|--------------|--------------------|-------------|--------------|
A|--------------|--------------------|-------------|--------------|
E|--------------|--------------------|-------------|--------------|

E|-11-8-8-8-8-8-|-13-13-13--11-11-11-|-6-8-8-8-8-8-|-11-8-8-8-8-8-|
B|--------------|--------------------|-------------|--------------|
G|--------------|--------------------|-------------|--------------|
D|--------------|--------------------|-------------|--------------|
A|--------------|--------------------|-------------|--------------|
E|--------------|--------------------|-------------|--------------|

E|-11-8-8-8-8-8-|-8-8-8--8-8-8-|-8-8-8--8-8-8-|-8-8-8--8-8-8-|
B|--------------|--------------|--------------|--------------|
G|--------------|--------------|--------------|--------------|
D|--------------|--------------|--------------|--------------|
A|--------------|--------------|--------------|--------------|
E|--------------|--------------|--------------|--------------|

E|-8-8-8--8-8-8-|-8-8-8--8-8-8-|-8-8-8--8-8-8-|-8-8-8--8-8-8-|
B|--------------|--------------|--------------|--------------|
G|--------------|--------------|--------------|--------------|
D|--------------|--------------|--------------|--------------|
A|--------------|--------------|--------------|--------------|
E|--------------|--------------|--------------|--------------|

E|-8-8-8--8-8-8-|-8-8-8--8-8-8-|-8-8-8--8-8-8-|-8-8-8--8-8-8-|
B|--------------|--------------|--------------|--------------|
G|--------------|--------------|--------------|--------------|
D|--------------|--------------|--------------|--------------|
A|--------------|--------------|--------------|--------------|
E|--------------|--------------|--------------|--------------|
[ Tab from: http://www.guitaretab.com/d/darude/124348.html ]
E|-8-8-8--8-8-8-|-8-8-8--8-8-8-|-8-8-8--8-8-8-|-8-8-8--8-8-8-|
B|--------------|--------------|--------------|--------------|
G|--------------|--------------|--------------|--------------|
D|--------------|--------------|--------------|--------------|
A|--------------|--------------|--------------|--------------|
E|--------------|--------------|--------------|--------------|

E|-8-8-8--8-8-8-|-8-8-8--8-8-8-|-8-8-8--8-8-8-|
B|--------------|--------------|--------------|
G|--------------|--------------|--------------|
D|--------------|--------------|--------------|
A|--------------|--------------|--------------|
E|--------------|--------------|--------------|

Guitar 2

E|----------------|--------------------|----------------|
B|-13-13-13-13-13-|-16--13-13-13-13-13-|-13-13-13-13-13-|
G|----------------|--------------------|----------------|
D|----------------|--------------------|----------------|
A|----------------|--------------------|----------------|
E|----------------|--------------------|----------------|

E|----------------------|----------------|----------------|
B|-16-18-18-18-18-18-16-|-13-13-13-13-13-|-13-13-13-13-13-|
G|----------------------|----------------|----------------|
D|----------------------|----------------|----------------|
A|----------------------|----------------|----------------|
E|----------------------|----------------|----------------|

E|----------------|----------------|-------------------|----------------|
B|-13-13-13-13-13-|-13-13-13-13-13-|-16-13-13-13-13-13-|-13-13-13-13-13-|
G|----------------|----------------|-------------------|----------------|
D|----------------|----------------|-------------------|----------------|
A|----------------|----------------|-------------------|----------------|
E|----------------|----------------|-------------------|----------------|

E|----------------|----------------|----------------|----------------|
B|-13-13-13-13-13-|-13-13-13-13-13-|-13-13-13-13-13-|-13-13-13-13-13-|
G|----------------|----------------|----------------|----------------|
D|----------------|----------------|----------------|----------------|
A|----------------|----------------|----------------|----------------|
E|----------------|----------------|----------------|----------------|

E|----------------|----------------|--------------------------|
B|-13-13-13-13-13-|-13-13-13-13-13-|-13-13-13-13--13-13-13-13-|
G|----------------|----------------|--------------------------|
D|----------------|----------------|--------------------------|
A|----------------|----------------|--------------------------|
E|----------------|----------------|--------------------------|

E|--------------------------|--------------------------|
B|-13-13-13-13--13-13-13-13-|-13-13-13-13--13-13-13-13-|
G|--------------------------|--------------------------|
D|--------------------------|--------------------------|
A|--------------------------|--------------------------|
E|--------------------------|--------------------------|

E|--------------------------|--------------------------|
B|-13-13-13-13--13-13-13-13-|-13-13-13-13--13-13-13-13-|
G|--------------------------|--------------------------|
D|--------------------------|--------------------------|
A|--------------------------|--------------------------|
E|--------------------------|--------------------------|

E|--------------------------|--------------------------|
B|-13-13-13-13--13-13-13-13-|-13-13-13-13--13-13-13-13-|
G|--------------------------|--------------------------|
D|--------------------------|--------------------------|
A|--------------------------|--------------------------|
E|--------------------------|--------------------------|

E|-------------|----------------|----------------------|
B|-13-13-13-13-|-13-13-13-13-13-|-13-13-13-13-13-13-13-|
G|-------------|----------------|----------------------|
D|-------------|----------------|----------------------|
A|-------------|----------------|----------------------|
E|-------------|----------------|----------------------|

E|----------------|----------------|----------------------|
B|-18-18-18-18-18-|-16-16-16-16-16-|-11-11-13-13-13-13-13-|
G|----------------|----------------|----------------------|
D|----------------|----------------|----------------------|
A|----------------|----------------|----------------------|
E|----------------|----------------|----------------------|

E|----------------------|----------------------|----------------------|
B|-13-13-13-13-13-13-13-|-16-16-13-13-13-13-13-|-13-13-13-13-13-13-13-|
G|----------------------|----------------------|----------------------|
D|----------------------|----------------------|----------------------|
A|----------------------|----------------------|----------------------|
E|----------------------|----------------------|----------------------|

E|----------------------|----------------------|----------------|
B|-16-16-13-13-13-13-13-|-13-13-13-13-13-13-13-|-18-18-18-18-18-|
G|----------------------|----------------------|----------------|
D|----------------------|----------------------|----------------|
A|----------------------|----------------------|----------------|
E|----------------------|----------------------|----------------|

E|----------------|----------------------|----------------------|
B|-16-16-16-16-16-|-11-11-13-13-13-13-13-|-13-13-13-13-13-13-13-|
G|----------------|----------------------|----------------------|
D|----------------|----------------------|----------------------|
A|----------------|----------------------|----------------------|
E|----------------|----------------------|----------------------|

E|----------------------|----------------------|----------------------|
B|-16-16-13-13-13-13-13-|-13-13-13-13-13-13-13-|-16-16-13-13-13-13-13-|
G|----------------------|----------------------|----------------------|
D|----------------------|----------------------|----------------------|
A|----------------------|----------------------|----------------------|
E|----------------------|----------------------|----------------------|

E|----------------------|----------------|----------------|
B|-13-13-13-13-13-13-13-|-18-18-18-18-18-|-16-16-16-16-16-|
G|----------------------|----------------|----------------|
D|----------------------|----------------|----------------|
A|----------------------|----------------|----------------|
E|----------------------|----------------|----------------|

E|----------------------|----------------------|----------------------|
B|-11-11-13-13-13-13-13-|-13-13-13-13-13-13-13-|-16-16-13-13-13-13-13-|
G|----------------------|----------------------|----------------------|
D|----------------------|----------------------|----------------------|
A|----------------------|----------------------|----------------------|
E|----------------------|----------------------|----------------------|

E|----------------------|----------------------|----------------------|
B|-13-13-13-13-13-13-13-|-16-16-13-13-13-13-13-|-13-13-13-13-13-13-13-|
G|----------------------|----------------------|----------------------|
D|----------------------|----------------------|----------------------|
A|----------------------|----------------------|----------------------|
E|----------------------|----------------------|----------------------|

E|----------------|----------------|----------------------|
B|-18-18-18-18-18-|-16-16-16-16-16-|-11-11-13-13-13-13-13-|
G|----------------|----------------|----------------------|
D|----------------|----------------|----------------------|
A|----------------|----------------|----------------------|
E|----------------|----------------|----------------------|

E|----------------------|----------------------|----------------------|
B|-13-13-13-13-13-13-13-|-16-16-13-13-13-13-13-|-13-13-13-13-13-13-13-|
G|----------------------|----------------------|----------------------|
D|----------------------|----------------------|----------------------|
A|----------------------|----------------------|----------------------|
E|----------------------|----------------------|----------------------|

E|-------------|----------------------|-------------|----------------------|
B|-13-13-13-13-|-13-13-13-13-13-16-16-|-13-13-13-13-|-13-13-13-13-13-16-16-|
G|-------------|----------------------|-------------|----------------------|
D|-------------|----------------------|-------------|----------------------|
A|-------------|----------------------|-------------|----------------------|
E|-------------|----------------------|-------------|----------------------|

E|-------------|----------------------|-------------|----------------------|
B|-13-13-13-13-|-13-13-13-13-13-16-16-|-13-13-13-13-|-13-13-13-13-13-16-16-|
G|-------------|----------------------|-------------|----------------------|
D|-------------|----------------------|-------------|----------------------|
A|-------------|----------------------|-------------|----------------------|
E|-------------|----------------------|-------------|----------------------|

E|----------------|----------------|----------------|----------------|
B|-13-13-13-16-16-|-13-13-13-16-16-|-13-13-13-16-16-|-13-13-13-16-16-|
G|----------------|----------------|----------------|----------------|
D|----------------|----------------|----------------|----------------|
A|----------------|----------------|----------------|----------------|
E|----------------|----------------|----------------|----------------|

E|--------------------|--------------------|--------------------|
B|-13-13-16--13-13-16-|-13-13-16--13-13-16-|-13-13-16--13-13-16-|
G|--------------------|--------------------|--------------------|
D|--------------------|--------------------|--------------------|
A|--------------------|--------------------|--------------------|
E|--------------------|--------------------|--------------------|

E|--------------------|----------------|----------------------|
B|-13-13-16--13-13-16-|-13-13-13-13-13-|-13-13-13-13-13-13-13-|
G|--------------------|----------------|----------------------|
D|--------------------|----------------|----------------------|
A|--------------------|----------------|----------------------|
E|--------------------|----------------|----------------------|

E|----------------|----------------|----------------------|
B|-18-18-18-18-18-|-16-16-16-16-16-|-11-11-13-13-13-13-13-|
G|----------------|----------------|----------------------|
D|----------------|----------------|----------------------|
A|----------------|----------------|----------------------|
E|----------------|----------------|----------------------|

E|----------------------|----------------------|----------------------|
B|-13-13-13-13-13-13-13-|-16-16-13-13-13-13-13-|-13-13-13-13-13-13-13-|
G|----------------------|----------------------|----------------------|
D|----------------------|----------------------|----------------------|
A|----------------------|----------------------|----------------------|
E|----------------------|----------------------|----------------------|

E|----------------------|----------------------|----------------|
B|-16-16-13-13-13-13-13-|-13-13-13-13-13-13-13-|-18-18-18-18-18-|
G|----------------------|----------------------|----------------|
D|----------------------|----------------------|----------------|
A|----------------------|----------------------|----------------|
E|----------------------|----------------------|----------------|

E|----------------|----------------------|----------------------|
B|-16-16-16-16-16-|-11-11-13-13-13-13-13-|-13-13-13-13-13-13-13-|
G|----------------|----------------------|----------------------|
D|----------------|----------------------|----------------------|
A|----------------|----------------------|----------------------|
E|----------------|----------------------|----------------------|

E|----------------------|----------------------|----------------------|
B|-16-16-13-13-13-13-13-|-13-13-13-13-13-13-13-|-16-16-13-13-13-13-13-|
G|----------------------|----------------------|----------------------|
D|----------------------|----------------------|----------------------|
A|----------------------|----------------------|----------------------|
E|----------------------|----------------------|----------------------|

E|----------------------|----------------|----------------|
B|-13-13-13-13-13-13-13-|-18-18-18-18-18-|-16-16-16-16-16-|
G|----------------------|----------------|----------------|
D|----------------------|----------------|----------------|
A|----------------------|----------------|----------------|
E|----------------------|----------------|----------------|

E|----------------------|----------------------|----------------------|
B|-11-11-13-13-13-13-13-|-13-13-13-13-13-13-13-|-16-16-13-13-13-13-13-|
G|----------------------|----------------------|----------------------|
D|----------------------|----------------------|----------------------|
A|----------------------|----------------------|----------------------|
E|----------------------|----------------------|----------------------|

E|----------------------|----------------------|----------------------|
B|-13-13-13-13-13-13-13-|-16-16-13-13-13-13-13-|-13-13-13-13-13-13-13-|
G|----------------------|----------------------|----------------------|
D|----------------------|----------------------|----------------------|
A|----------------------|----------------------|----------------------|
E|----------------------|----------------------|----------------------|

E|----------------|----------------|----------------------|-------------|
B|-18-18-18-18-18-|-16-16-16-16-16-|-11-11-13-13-13-13-13-|-13-13-13-13-|
G|----------------|----------------|----------------------|-------------|
D|----------------|----------------|----------------------|-------------|
A|----------------|----------------|----------------------|-------------|
E|----------------|----------------|----------------------|-------------|

E|--------------------------|--------------------------|-------------|
B|-13-13-13-13--13-13-13-13-|-13-13-13-13--13-13-13-13-|-13-13-13-13-|
G|--------------------------|--------------------------|-------------|
D|--------------------------|--------------------------|-------------|
A|--------------------------|--------------------------|-------------|
E|--------------------------|--------------------------|-------------|