Darwin Deez - Bed Space tab

-------------------------------------------------------------------------------
			    BED SPACE - Darwin Deez
-------------------------------------------------------------------------------
Tabbed by: George (ge0rge12345)


Tuning: Standard EADGBe (Although I'm aware Darwin uses something else)

For this intro, 'm' means miss the first beat of the bar. Its kind of 'mute' but 
without even touching the strings
     
e|---------------------------------------------------------------------------|
B|-m-11--11--11--11--11--11-11-11-11--m-11--11--11--11--11--11-11-11-11------|
G|-m-11--11--11--11--11--11-11-11-11--m-11--11--11--11--11--11-11-11-11------| 
D|-m-11--11--11--11--11--11-11-11-11--m-11--11--11--11--11--11-11-11-11------|
A|-m-9---9---9---9---9---9--9--9--9---m--------------------------------------|
E|--------------------------------------11--11--11--11--11--11-11-11-11------|

      Repeat this for the intro chords and verse chords

Over the top Cole Plays this:
e|---------------------------------------------------------------------------|
B|---------------------------------------------------------------------------|
G|--10-------------------------------------10b11r10--------------------------|
D|----11--------------------11-8~~~~~~~------------11------------------11~~--|
A|------11~~~~~~--9-11-9-11--------------------------11~~~~~--9-11-9-11------|
E|---------------------------------------------------------------------------|

Pre Chorus (You don't sleep here anymore)
e|---------------------------------------------------------------------------|
B|---------------------------------------------------------------------------|
G|---8-8-x-x--8-8-x-x----10-10-x-x--10-10-x-x--------------------------------|
D|---9-9-x-x--9-9-x-x----11-11-x-x--11-11-x-x--Repeat as necessary-----------|
A|---9-9-x-x--9-9-x-x----11-11-x-x--11-11-x-x--------------------------------|
E|---7-7-x-x--7-7-x-x----9--9--x-x--9--9--x-x--------------------------------|

Repeat Verse

CHORUS

I Don't know where I am
e|----STRUM-HOWEVER-YOU-THINK-SOUNDS-RIGHT----------------------------------|
B|--------------------------------------------------------------------------|
G|---8--8--8--8--8--8--8--8---11-11-11-11-----------------------------------|
D|---9--9--9--9--9--9--9--9---11-11-11-11--11-11-11-11----------------------|
A|---9--9--9--9--9--9--9--9---9--9--9--9---11-11-11-11----------------------|
E|---7--7--7--7--7--7--7--7----------------9--9--9--9-----------------------|

I'm just wasting time away
e|---------------------------------------------------------------------------|
B|---------------------------------------------------------------------------|
G|---8-8-x-x--8-8-x-x----10-10-x-x--10-10-x-x--------------------------------|
D|---9-9-x-x--9-9-x-x----11-11-x-x--11-11-x-x---Repeat-----------------------|
A|---9-9-x-x--9-9-x-x----11-11-x-x--11-11-x-x--------------------------------|
E|---7-7-x-x--7-7-x-x----9--9--x-x--9--9--x-x--------------------------------|


Weird 'I pull the covers over my head' bit
e|--------------------------------------V-(tens not 1 and 0s)----------------|
B|---------------------------------------------------------------------------|
G|---8-x-8-8-x-8-8-x-8-8-x---8-8-x-8-8-x-8-8-x-8-8-x-------------------------|
D|---9-x-9-9-x-9-9-x-9-9-x---9-10x-1010x-1010x-1010x---Repeat----------------|
A|---9-x-9-9-x-9-9-x-9-9-x---9-9-x-9-9-x-9-9-x-9-9-x-------------------------|
E|---7-x-7-7-x-7-7-x-7-7-x---7-8-x-8-8-x-8-8-x-8-8-x-------------------------|

Sneaky chord change on the last time:
e|---------------------------------------------------------------------------|
B|---------------------------------------------------------------------------|
G|---8-x-8-8-x-8-8-x-8-8-x---8-14-x-14-14-x-14-16-x-16-16-x------------------|
D|---9-x-9-9-x-9-9-x-9-9-x---9-15-x-15-15-x-15-17-x-17-17-x------------------|
A|---9-x-9-9-x-9-9-x-9-9-x---9-15-x-15-15-x-15-17-x-17-17-x------------------|
E|---7-x-7-7-x-7-7-x-7-7-x---7-13-x-13-13-x-13-15-x-15-15-x------------------|

Last Chorus
e|--I-don't-know-where-I-am-------I-am---so-lost-----------------------------|
B|-------------------------8-------------------------------------------------|
G|--10-----5---------------8---------7---------------------------------------|
D|--10-----6---------------8---------8---------------------------------------|
A|--10-----6---------------6---------8---------------------------------------|
E|--8------4-------------------------6---------------------------------------|

e|---I'm-just-drifting-around----since-you've-----been-gone---------------------|
B|-------------------------------------8----------------------------------------|
G|---5------------------8--------------8---7------------------------------------|
D|---6------------------10-------------8---8------------------------------------|
A|---6------------------10-------------6---8------------------------------------|
E|---4------------------8------------------6------------------------------------|


e|--------I'm-just-wasting-time-away-I'm-just-wasting-time-in-space------------|
B|-----------------------------------------------------------------------------|
G|---5---5------7----7------5----5----7---7------------------------------------|
D|---6---6------8----8------6----6----8---8------------------------------------|
A|---6---6------8----8------6----6----8---8------------------------------------|
E|---4---4------6----6------4----4----6---6------------------------------------|


************************************

| /   slide up
| \   slide down
| h   hammer-on
| p   pull-off
| ~   vibrato
| +   harmonic
| x   Mute note
| b   Bend
| pb  Pre-bend
| br  Bend release
| pbr Pre-bend release
| brb Bend release bend

************************************
Tap to rate this tab
 
# A B C D E F G H I J K L M N O P Q R S T U V W X Y Z